Guitar Tabs
song title    band name

Join Us Today!

Don't strum alone...
be a part of the largest online Christian music community. Browse thousands of guitar tabs and chat w/ musicians like yourself.


It's Free!

Jars of Clay - Overjoyed

This tab has been rated a 5.00 out of 5 for accuracy. (2 votes)Sorry, but you must be logged in to rate this tab.
Click here to log-in, or you can click here to register.
(Registration is free)

All songs owned by corresponding publishing company. If you make copies of any song on this website, be sure to report your usage to CCLI.
Song:   Overjoyed
Artist: by Jars of Clay
Source: From the Album: "Much Afraid" by Jars of Clay (1997)
transcribed by: Darryl Kechnie [isaiahrain@hotmail.com]                  

*There are a lot of variants of the "A" chord in this song, rather than 
write out the specific name of the chord, I've put a number 1-4 beside 
each chord in this chord list for quick reference in the song.

The Chords:
Dm7           Asus2[1]          F*              E/G#
(xx0560)      (x02200)      (x33210)           (4x2100)

Am*            C             Gmadd9*            Bm*
(x05500)      (x32010)      (x55000)           (x24030)

Fmaj7          Dsus          Asus2[3]           A[4]
(x03210)      (xxo230)      (x77600)           (x02220)

Am7            A[2]          Gadd9*
(x02010)      (x77650)      (x55400)


Dm7      Am*      Dm7
Am*      Dm7
Am*      Fmaj7    Am7      Dm7
Am*      Dm7      Am*      Dm7
Am*      Fmaj7    Am7      Fmaj7
Am7      A1

Chorus:
C        E/G#     A2
F        Gmadd9   A3
C        E/G#     Fmaj7    Gadd9?
E/G#

(Verse 2, same as verse 1:)

[Chorus]

Bridge:
A2       Bm*                                      
A2       Bm*
Dsus
A2       Dsus     A

Solo, (chorus plays underneathe):

           G------------------------------------------------------
           D---------------12^(13)--12--11------------------------
           A---11--12--14------------------12/14--11h12h11--------
           E------------------------------------------------------

           G---------------------------------------------
           D--11--12--14--7/9h7--9^(10)9^(10)------------
           A-----------------------------------7-9--/--4-
           E---------------------------------------------

           G--------------------------------------------
           D--------------12^(14)--12--11---------------
           A--11--12--14-------------------12/14-11--12-
           E--------------------------------------------
(this part is really quick, the slide from 7/4 is very subtle, but quick 
at the last possible second).
           G------5---7-5---7-5-----------
           D--5-7---5-----7-----7-5-7/4---
           A------------------------------
           E------------------------------

[Chorus x 2]
                 
Gadd9?   Fmaj7    Gadd9?   Fmaj7 
Gadd9?   E/G#

                  Words by Dan Haseltine
                  Music by Matt Odmark, Charlie Lowell, Steve Mason,                    
Mark Hudson,Greg Wells Copyright 1997                                
BridgeBuilding Music (BMI)/Pogostick Music                            
(BMI)/Irving Music (BMI)/Greg Wells Music                             
(BMI)/Beef Puppet Music (ASCAP). All rights                           
reserved. Used by permission. 

Comments about this tab

No comments/corrections found. Add your own

Complimentary Christian Ringtones
Dadamobile and CGR have teamed up to bring your favorite Christian artists right to your phone. Sign up today and get 10 complementary ringtones!
Tab Country
Did you know CGR has a sister site w/ country guitar tabs? Well we do! Its called Tab Country. It has a great archive with a lot of country tabs.
Rockin Tabs
Are you looking for a site that has rock guitar tabs? Then Rockintabs.com is the place for you. It is a budding site with many rock guitar tabs. Submit your tab today.
Tab Gallery
Tab Gallery has a compilation of christian, rock, and country tabs all in one place. Come visit us.