Guitar Tabs
song title    band name

Join Us Today!

Don't strum alone...
be a part of the largest online Christian music community. Browse thousands of guitar tabs and chat w/ musicians like yourself.


It's Free!

Jars of Clay - Needful Hands

This tab has been rated a 5.00 out of 5 for accuracy. (1 vote)Sorry, but you must be logged in to rate this tab.
Click here to log-in, or you can click here to register.
(Registration is free)

All songs owned by corresponding publishing company. If you make copies of any song on this website, be sure to report your usage to CCLI.
Needful Hands
Jars of Clay
CD: Exodus
C1998 Bridge Building Music
Tab by Steve Cruickshank
Postlambjam@hotmail.com


Intro:
(Left side)
e---4--------------------4----------------------------12--------
B---2------------------7--------2---5--7--9-----------12--------
G---4----------------6----------2---6--8--9--13--13---13---13---
D---2--------------6------------2--------------14--14----14--14-
A---0------------4--------------0-------------------------------
E---------------------------------------------------------------
----A            C#m            A            C#m

(Right side)
e-----0------------4-----5--------0------------4-----4----------
B---2---0h2--4-5-5---5-5---5----2---0h2--4-5-5---5-5---5--------
G---------------------------------------------------------------
D---------------------------------------------------------------
A---------------------------------------------------------------
E---------------------------------------------------------------
----A            C#m            A            C#m



Verse 1 (only on right side):                                       After 2nd time
e-----0---------------0---------------4------7-------5------5------|----------
B---2----0h2--4-5---2----0h2--4-5---5---5--9---9---7---7--7---7----|--------0-
G------------------------------------------------------------------|----------
D------------------------------------------------------------------|------4---
A------------------------------------------------------------------|----4-----
E------------------------------------------------------------------|--2-------
----A               C#m             E/G#           D                  F#m


Verse 2 (left side part, played with right side part from v 1):
e---------4-----------4------------0---------0-5-------------------
B-------2---2-------2---2--------4---------3-----------------------
G-----4-----------4------------4-----------------------------------
D----------------------------------------0-------------------------
A---0-----------4--------------------------------------------------
E----------------------------4-------------------------------------
----A           C#m          E/G#        D



Bridge:
e-----2------2-------0------0-----------------------------------
B---------------------------------------------------------------
G---4---4--4---4---4---4--4---4---------------------------------
D---------------------------------------------------------------
A---------------------------------------------------------------
E---------------------------------------------------------------
----B              F#m




Verse:
A      C#m    E/G#   D
A      C#m    E/G#   D      F#m


Chorus:
B      A      C#m    B
B      A      C#m    B
B      A      G#m    F#m

Verse 2

Chorus 2:
B      A      C#m    B
B      A      C#m    B
B      A      G#m    F#m

B      A      C#m    B
B      A      C#m    B
B      A      G#m    G      A      B

B      F#m    C#m    B
B      F#m    C#m    B
B      F#m    G#m    F#m


Bridge:
B      F#m
G#m    G      A      B


Outro: Chorus
B      F#m    C#m    B
B      F#m    C#m    B
B      F#m    G#m    F#m

B      F#m    C#m    B
B      F#m    C#m    B
B      F#m    G#m    G      A      B

Comments about this tab

LvCmstck - 2005-02-19

maybe I'm the only one, but what the heck does right and left side mean? and I can't seem to get this to sound right, is this right?


newsgirl14 - 2005-08-31

same here


Michael4536 - 2006-03-29

umm right and left side simply means that there are 2 guitars that are playing (probly one on the left side of the speaker and one on the other) and for the wrong sound... are you sure you have the right cd this song is tabbed after the exodus cd so they may have changed it... God bless y'all


Add a comment/correction

Complimentary Christian Ringtones
Dadamobile and CGR have teamed up to bring your favorite Christian artists right to your phone. Sign up today and get 10 complementary ringtones!
Tab Country
Did you know CGR has a sister site w/ country guitar tabs? Well we do! Its called Tab Country. It has a great archive with a lot of country tabs.
Rockin Tabs
Are you looking for a site that has rock guitar tabs? Then Rockintabs.com is the place for you. It is a budding site with many rock guitar tabs. Submit your tab today.
Tab Gallery
Tab Gallery has a compilation of christian, rock, and country tabs all in one place. Come visit us.