Guitar Tabs
song title    band name

Join Us Today!

Don't strum alone...
be a part of the largest online Christian music community. Browse thousands of guitar tabs and chat w/ musicians like yourself.


It's Free!

This tab has been rated a 4.13 out of 5 for accuracy. (8 votes)Sorry, but you must be logged in to rate this tab.
Click here to log-in, or you can click here to register.
(Registration is free)

All songs owned by corresponding publishing company. If you make copies of any song on this website, be sure to report your usage to CCLI.
                  God Rest Ye Merry Gentlemen
                      from drummer boy CD
                         jars of clay



                                            tran. Brian Harrison
                                              beh2119@tntech.edu

Intro\Main part
                               sl.
|--0--------0--------2--------3\2-3-----0-------0---------------|
|-----0--------0--------0-------0---0-------0------0------------|
|---------------------------------------------------------------|
|--2--------2--------0------------------------------------------|
|-----------------------------3\2-3-----0-------0---------------|
|---------------------------------------------------------------|
                                sl.


     tricky part
|-----3--5--7-----0------2-----3\2-3-----0-------2--------------|
|--------------0-----0------0----0---0------0-------3-----------|
|---------------------------------------------------------------|
|---------------------------------------------------------------|
|-----------------2------0-----3\2-3-----0----------------------|
|-----3--2--0-------------------------------------------3--2----|

Solo Intro
|---------------------------------------------------------------|
|--5----3----1---0----------------------------------------------|
|----------------------2----0-----------------------------------|
|--------------------------------4----0-------------------------|
|---------------------------------------------------------------|
|---------------------------------------------------------------|

Chord progression for solo

Chorus:
Em   Am   D    G

Song Format
Intro
main part 7X with Verse 1 & Chorus
main part 6X with Verse 2 & Chorus
Solo intro
Em   Am   D    G  4x with solo
main part 7X with Verse 1 & Chorus

Comments about this tab

mmggppmgp - 2004-12-24

the solo is basically the melody... with a little twists


mmggppmgp - 2004-12-24

the last part sounds a little off


mmggppmgp - 2004-12-24

i mean the last part of the main thingy but u did a very good job... it was hard to play first but whoooo i cant believe i can almost play this


mmggppmgp - 2005-12-04

after a year, n its christmas again i figured it out.

E-3-3/7-7-5-3-2~-2h3-3/5-5-3~-
B-----------------------------
G-----------------------------
D-----------------------------
A-----------------------------
E-0~--------------------------

E-3-3/7-7-5-7h8p7s5s2~-2h3-3/5-5-3~-
B-----------------------------------

n then these instruments come playin the same thing

hav fun.


mmggppmgp - 2005-12-04

umm there is a space between the 0 in the lower E and the 3 in the high e


Add a comment/correction

Complimentary Christian Ringtones
Dadamobile and CGR have teamed up to bring your favorite Christian artists right to your phone. Sign up today and get 10 complementary ringtones!
Tab Country
Did you know CGR has a sister site w/ country guitar tabs? Well we do! Its called Tab Country. It has a great archive with a lot of country tabs.
Rockin Tabs
Are you looking for a site that has rock guitar tabs? Then Rockintabs.com is the place for you. It is a budding site with many rock guitar tabs. Submit your tab today.
Tab Gallery
Tab Gallery has a compilation of christian, rock, and country tabs all in one place. Come visit us.