Guitar Tabs
song title    band name

Join Us Today!

Don't strum alone...
be a part of the largest online Christian music community. Browse thousands of guitar tabs and chat w/ musicians like yourself.


It's Free!

Third Day - Give Me A Reason

This tab has not yet been rated for accuracy.Sorry, but you must be logged in to rate this tab.
Click here to log-in, or you can click here to register.
(Registration is free)

All songs owned by corresponding publishing company. If you make copies of any song on this website, be sure to report your usage to CCLI.
Song: "Give Me A Reason"
Album: "Conspiracy No. 5"
Artist: Third Day
Copyright: 1997 New Spring Publishing / ASCAP
        
Intro:

Gtr.1   A5/ /       G5/ /       D5/ /          C5 //////
Gtr.2
-------------5-5--5\-----3-3--3\-----10-10--10\---8-------------|
-------------8-8--8\-----6-6--6\-----10-10--10\---11------------|
-------------6-6--6\-----4-4--4\-----11-11--11\---9---(8 times)-|
-------------5-5--5\-----3-3--3\-----10-10--10\---8-------------|
-------------7-7--7\-----5-5--5\-----12-12--12\---10------------|
-------------5-5--5\-----3-3--3\-----10-10--10\---8-------------|

Verse 1:  Play A throughout   Gtr.1 - tremolo effect with speed 
control, Gtr.2 - same as chorus

Gtr.2 plays this in right before singing starts
--------------------------|
-------------2------------|
--------0------0----------|
-----2----2------2--------|
--0-----------------------|
--------------------------|

Chorus: same as intro

Verse 2:
 Gtr.2 plays this in right before singing starts, then plays the 
following A chord every other beat until the chorus:
                              A
--------------------------|---------||
-------------2------2-----|---10----||
--------0------0----------|---9-----|| 
-----2----2------2--------|---7-----||
--0-----------------------|---------||
--------------------------|---------||

Chorus: same as intro

Bridge: Gtr.2                      b=bend the octave up 1/2 step
------------------------------------------------------------------------------|
------------------------------------------------------------------------------|
--5--/9--7--5-----7--/11-9--7---------9b--------9b--------9b-----9b10r9p7-----| 
--x---x--x--x-----x---x--x--x---------x---------x---------x----------------9--|
--3--/7--5--3-----5--/9--7--5---------7b--------7b--------7b--7---------------|
--------------------------------0--0------0--0------0--0----------------------|

------------------------------------------------------------------|
------------------------------------------------------------------|
--5--/9--7--5----7--/11-9--7----7--/12--11-7----11-/14--12--11----| 
--x---x--x--x----x---x--x--x----x---x---x--x----x---x---x---x-----| 
--3--/7--5--3----5--/9--7--5----9--/10--9--9----9--/12--10--9-----|
------------------------------------------------------------------|

--------------------------------------------------|
--------------------------------------------------|
--12--/16--14--12----/14-----------7--7--6--------| 
--x----x---x---x----------12-11-9--x--x--x--------| 
--10--/14--12--10----/12-----------9--5--4---0----|
--------------------------------------------------|

Then stay on A (like verse), Gtr.1 w/tremolo with speed slowing down to nothing

Then the Chorus
End on first bar of bridge

Comments about this tab

No comments/corrections found. Add your own

Complimentary Christian Ringtones
Dadamobile and CGR have teamed up to bring your favorite Christian artists right to your phone. Sign up today and get 10 complementary ringtones!
Tab Country
Did you know CGR has a sister site w/ country guitar tabs? Well we do! Its called Tab Country. It has a great archive with a lot of country tabs.
Rockin Tabs
Are you looking for a site that has rock guitar tabs? Then Rockintabs.com is the place for you. It is a budding site with many rock guitar tabs. Submit your tab today.
Tab Gallery
Tab Gallery has a compilation of christian, rock, and country tabs all in one place. Come visit us.