Guitar Tabs
song title    band name

Join Us Today!

Don't strum alone...
be a part of the largest online Christian music community. Browse thousands of guitar tabs and chat w/ musicians like yourself.


It's Free!

Caedmon's Call - Standing Up For Nothing

This tab has not yet been rated for accuracy.Sorry, but you must be logged in to rate this tab.
Click here to log-in, or you can click here to register.
(Registration is free)

All songs owned by corresponding publishing company. If you make copies of any song on this website, be sure to report your usage to CCLI.
"Standing Up For Nothing" by Caedmon's Call
From "Caedmon's Call", Warner Alliance 1997
Words and music by Derek Webb
Copyright  1997 Cumbee Road Music (ASCAP)
caedmons-call.com   awakeningrecords.com
Transcribed by T-rev http://www.t-rev.net


the picking in standing up for nothing is just this repeated pattern:

  1 & 2 & 3   1   2   3   1   2   3   1   2   3
---------------------------------------------------------
--------3-----------3-----------3-----------3------------
------------0-----------0-----------0-----------0--------
------0---0-------0---0-------2---2-----------0----------
--2h3---------0h2---------0------------------------------
--------------------------------------3------------------
      ^           ^           ^
these on beat 2 are much softer.  for the G he just leaves it out

then in between verses he does this once.
--------0-----------------------0-----------------------
------------3-------3---------------3-------3-----------
------------------------0-----------------------0-------
------0---0-------0---0-------2---2-----------0---------
--2h3---------0h2---------0-----------------------------
--------------------------------------3-----------------


Transcribed 3/14/1998 by T-rev
More tab available at http://www.t-rev.net

Comments about this tab

No comments/corrections found. Add your own

Complimentary Christian Ringtones
Dadamobile and CGR have teamed up to bring your favorite Christian artists right to your phone. Sign up today and get 10 complementary ringtones!
Tab Country
Did you know CGR has a sister site w/ country guitar tabs? Well we do! Its called Tab Country. It has a great archive with a lot of country tabs.
Rockin Tabs
Are you looking for a site that has rock guitar tabs? Then Rockintabs.com is the place for you. It is a budding site with many rock guitar tabs. Submit your tab today.
Tab Gallery
Tab Gallery has a compilation of christian, rock, and country tabs all in one place. Come visit us.