Guitar Tabs
song title    band name

Join Us Today!

Don't strum alone...
be a part of the largest online Christian music community. Browse thousands of guitar tabs and chat w/ musicians like yourself.


It's Free!

Caedmon's Call - Lead Of Love

This tab has been rated a 5.00 out of 5 for accuracy. (1 vote)Sorry, but you must be logged in to rate this tab.
Click here to log-in, or you can click here to register.
(Registration is free)

All songs owned by corresponding publishing company. If you make copies of any song on this website, be sure to report your usage to CCLI.
Guitar solo in "Lead Of Love" by Caedmon's Call
From "Caedmon's Call", Warner Alliance 1997
Words and music by Aaron Tate
Copyright  1997 Cumbee Road Music (ASCAP)
II Samuel 7:18-19 
caedmons-call.com   awakeningrecords.com
Transcribed by T-rev http://www.t-rev.net


This is capo 4, or if you're capoed 2, you can just bar the 2nd fret 
above the capo with your index finger throughout the solo.  Essentially 
in this song, the capo 2 (in E) guitar that plays the intro lick is 
lead, and the capo 4 (in D) guitar is rhythm whenever that lick is 
being played.  For the guitar solo, however, the capo 2 takes over 
rhythm, and the capo 4 plays the solo.


 1   2   3   4   1   2   3   4   1   2   3   4   1   2   3   4
|---------------|---------------|---------------|---------------|
|---------------|---------------|---------------|---------------|
|---------------|---------------|---------------|---------------|
|0-----0-0--2--4|2-----2-2--0---|0--------------|---------------|
|---------------|--------------4|-----h4---2---2|0-----0-0--2--4|
|---------------|---------------|---------------|---------------|


 1   2   3   4   1   2   3   4   1   2   3   4   1   2   3   4   1
|---------------|---------------|---------------|---------------|--
|---------------|---------------|---------------|---------------|--
|---------------|--------------0|2--0----0------|---------------|--
|0-----0-0--2--4|2-----2-2--4---|------4----4--2|4--2--0-2--0---|0-
|---------------|---------------|---------------|--------------4|--
|---------------|---------------|---------------|---------------|--


Transcribed 3/28/1998 by T-rev
More tab available at http://www.t-rev.net

Comments about this tab

No comments/corrections found. Add your own

Complimentary Christian Ringtones
Dadamobile and CGR have teamed up to bring your favorite Christian artists right to your phone. Sign up today and get 10 complementary ringtones!
Tab Country
Did you know CGR has a sister site w/ country guitar tabs? Well we do! Its called Tab Country. It has a great archive with a lot of country tabs.
Rockin Tabs
Are you looking for a site that has rock guitar tabs? Then Rockintabs.com is the place for you. It is a budding site with many rock guitar tabs. Submit your tab today.
Tab Gallery
Tab Gallery has a compilation of christian, rock, and country tabs all in one place. Come visit us.