Guitar Tabs
song title    band name

Join Us Today!

Don't strum alone...
be a part of the largest online Christian music community. Browse thousands of guitar tabs and chat w/ musicians like yourself.


It's Free!

Caedmon's Call - Close Of Autumn

This tab has not yet been rated for accuracy.Sorry, but you must be logged in to rate this tab.
Click here to log-in, or you can click here to register.
(Registration is free)

All songs owned by corresponding publishing company. If you make copies of any song on this website, be sure to report your usage to CCLI.
"Close of Autumn" by Caedmon's Call
From "Just Don't Want Coffee"
Words and Music by Derek Webb
Copyright  1995 Thirsty Plants Music
caedmons-call.com   awakeningrecords.com
Transcribed by T-rev http://www.t-rev.net

Note: GUITAR STRINGS ARE MORE LIKELY TO BREAK SOONER IF YOU CHANGE TUNINGS
(I've received complaints.)

Psalm 13, II Cor. 12:9, James 1:19,20 


DGDGAD capo 8

Count 1   2   3   4   5   6   7   8   1   2   3   4   5   6   7   8   
   d-|-------------------------------|-------------------------------|
   a-|-------------------------------|-------------------------------|
   g-|-------------------------------|-------------------------------|
   d-|-------------------------------|-------------------------------|
   G-|-------------------------------|-------------------------------|
   D-|-------------------------------|-------------------------------|
      G9............................. G9............................. 

Count 1   2   3   4   5   6   7   8   1   2   3   4   5   6   7   8   
   d-|0-----0-----0-----0------------|0-----0-----0------------------|
   a-|0-----0-----0-----0------------|0-----0-----0------------------|
   g-|0-----0-----0-------2s4-5---242|0-----0-----0------s2---0------|
   d-|0------------------------------|0---0--------------s2---0---0--|
   G-|0------------------------------|0---0-----------------------5--|
   D-|0------------------------------|0------------------------------|
      G9............................. G9............................. 

Count 1   2   3   4   5   6   7   8   1   2   3   4   5   6   7   8   
   d-|0-----0-----0-----0------------|0------------------------------|
   a-|0-----0-----0-----0------------|0------------------------------|
   g-|0-----0-----0------------------|0------------------------------|
   d-|0------------------------------|0------------------------------|
   G-|4-----------------------2------|0------------------------------|
   D-|0------------------------------|0------------------------------|
      G9............................. G9............................. 

Count 1   2   3   4   5   6   7   8   1   2   3   4   5   6   7   8   
   d-|5-----4-----0------------------|5-----4-----0------------------|
   a-|0-----0-----0------------------|0-----0-----0------------------|
   g-|0-----0-----0-----------2s4----|0-----0-----0-------2s4-2p0----|
   d-|5-----4-----0------------------|5-----4-----0---------------2p0|
   G-|0-----------------------2s4----|0-------------------2s4-2p0----|
   D-|0------------------------------|0---------------------------2p0|
      G9............................. G9............................. 

Count 1   2   3   4   5   6   7   8   1   2   3   4   5   6   7   8   
   d-|5-----4-----0------------------|5-----4-----0-----0---0---0---0|
   a-|0-----0-----0------------------|0-----0-----0-----3---3---3---3|
   g-|0-----0-----0-----------2s4----|0-----0-----0-----2---2---2---2|
   d-|5-----4-----4------------------|5-----4-----0-----0---0---0---0|
   G-|0-----------------------2s4----|0-----------------0---0---0---0|
   D-|0------------------------------|0-----------------0---0---0---0|
      G9............................. G9............................. 

Count 1   2   3   4   5   6   7   8   1   2   3   4   5   6   7   8   
   d-|----0-----0-0-0-----0-------0--|-------------------------------|
   a-|----0-----0-0-0-----0-------0--|-------------------------------|
   g-|----0-----0-0-0-----0-------0--|-------------------------------|
   d-|----0-----0-0-0-----0-------0--|-------------------------------|
   G-|0---0-----0-0-0-2---2---0---0--|-------------------------------|
   D-|5---5-----5-5-5-0---0---5---5--|-------------------------------|
      G9............. Dsus4.. G9............................. 

Count 1   2   3   4   5   6   7   8   1   2   3   4   5   6   7   8   
   d-|0------------------------------|----0--------------------------|
   a-|0------------------------------|----0--------------------------|
   g-|0------------------------------|----0--------------------------|
   d-|0------------------------------|----0--------------------------|
   G-|0------------------------------|----0--------------------------|
   D-|5------------------------------|0h2----------------------------|
      G9............................. Em7sus4........................ 

Count 1   2   3   4   5   6   7   8   1   2   3   4   5   6   7   8   
   d-|----0--------------------------|----0-----------0--------------|
   a-|----0--------------------------|----0-----------0--------------|
   g-|----0--------------------------|----0-----------0--------------|
   d-|----0--------------------------|----0-----------0--------------|
   G-|----0--------------------------|----0-----------2--------------|
   D-|2h3----------------------------|0h2-------------0--------------|
      Fsus6,2........................ Em7sus4........ Dsus4.......... 

Count 1   2   3   4   5   6   7   8   1   2   3   4   5   6   7   8   
   d-|----0---------------0----------|--------------------0----------|
   a-|----0---------------0----------|--------------------0----------|
   g-|----0---------------0----------|--------------------2----------|
   d-|----0---------------4----------|--------------------0----------|
   G-|----0---------------0----------|--------------------2----------|
   D-|2h3-------------0h2------------|2h3-------------0--------------|
      G9............. Em7sus4,9...... ............................. 

Count 1   2   3   4   5   6   7   8   1   2   3   4   5   6   7   8   
   d-|5-----4-----0------------------|0-----0-----0------------------|
   a-|0-----0-----0------------------|0-----0-----0------------------|
   g-|0-----0-----0------------------|0-----0-----0-------------0---0|
   d-|5-----4-----0------------------|0-----0-----0---------4---4----|
   G-|0-----------0------------------|0-----------2---------2--------|
   D-|0-----------2------------------|3-----------0------------------|
      G9............................. ............................. 


Count 1   2   3   4   5   6   7   8   1   2   3   4   5   6   7   8   
   d-|5s4-0-------0------------------|-------------------------------|
   a-|0------------------------------|-------------------------------|
   g-|0-------4s5-----5s4-0-------0--|-------------------------------|
   d-|5s4-0-------0-----------2s4----|-------------------------------|
   G-|0-------4s5-----5s4-0-------0--|-------------------------------|
   D-|0-----------------------2s4----|-------------------------------|
      G9............................. G9............................. 

Transcribed 3/2/1998 by T-rev
More tab available at http://www.t-rev.net

Comments about this tab

No comments/corrections found. Add your own

Complimentary Christian Ringtones
Dadamobile and CGR have teamed up to bring your favorite Christian artists right to your phone. Sign up today and get 10 complementary ringtones!
Tab Country
Did you know CGR has a sister site w/ country guitar tabs? Well we do! Its called Tab Country. It has a great archive with a lot of country tabs.
Rockin Tabs
Are you looking for a site that has rock guitar tabs? Then Rockintabs.com is the place for you. It is a budding site with many rock guitar tabs. Submit your tab today.
Tab Gallery
Tab Gallery has a compilation of christian, rock, and country tabs all in one place. Come visit us.