Guitar Tabs
song title    band name

Join Us Today!

Don't strum alone...
be a part of the largest online Christian music community. Browse thousands of guitar tabs and chat w/ musicians like yourself.


It's Free!

Peterson, Andrew - Shiloh

This tab has not yet been rated for accuracy.Sorry, but you must be logged in to rate this tab.
Click here to log-in, or you can click here to register.
(Registration is free)

All songs owned by corresponding publishing company. If you make copies of any song on this website, be sure to report your usage to CCLI.
"Shiloh" by Andrew Peterson
From "Carried Along"
Lyrics by Andrew Peterson, music by Andrew Peterson and C.J. Fluharty
Copyright  2000 New Spring Publishing (ASCAP)
and Maybe Just A Bear Music (BMI)
http://www.andrew-peterson.com
Transcribed by T-rev http://www.t-rev.net


Capo "drop-d" (or tune drop-d and capo 2).


INTRO/outro lick
-------------------------------------0---
-------------------------------------3---
-----0-------------------------------2---
-2h4---4p2p0-------0-----------------0---
-------------0h2h4---4p2p0-------0---0---
---------------------------0h2h3-----0---

D lick
-----------------------------0-------------------------------0-
-----------------------0h3-----------------------------0h3-----
-----------------0h2-----------------------------0h2-----------
-----0h2---2h4-----------------------0h2---2h4-----------------
---0-------------------------------0---------------------------
-0-------0-----0-----0-----0-----0-------0-----0-----0-----0---

G lick
-----------------0h2---2p0-----------------------0h2---2p0-----
-----------3-----------------3-------------3-----------------3-
-----0h2-----0-----------------------0h2-----0-----------------
---0-------------------------------0---------------------------
---------------------------------------------------------------
-3-------3-----3-----3-----3-----3-------3-----3-----3-----3---

A lick
---------------0---------------0---------------0-----------0---
-----2h3-------------2h3-------------2h3-------------2h3-------
---2-------4-------2-------4-------2-------4-------2-----------
---------------------------------------------------------------
-0-------0-------0-------0-------0-------0-------0-------------
---------------------------------------------------------------

repeat half of D lick

pickup lick
-----------0-
-------2h3---
-----0-------
-2h4---------
-------0-----
-3-----------

verse lick
-----------------------------------------------
-3-----------------------0-------0-----------0-
---0-------2---------0h2---0---------------2---
-------4-------4---4-----------0-----0---0-----
---------------------------------------0-------
-0---0-------0---2-------3---3-----3-----------

---------------------------------------------0-
-----------3-------------0---------0-----2h3---
-2p0-----------------0h2---0-------------------
-------4-------4---4-----------0-------0-------
-2---2-------2---------------------------0-----
-----------------2-------3---------------------


VERSE 1 (verse lick 4x)


CHORUS/bridge (hard to hear over gabe's part)
G     /B C     D  G     /B C     D
G     /B C     D  G     /B C  D  G  A

320033  G ("/B" means hammer 5th string)
X32010  C (hammer 2nd string) (when strumming X32033)
000232  D
X02200  A

  end of chorus:
     G         /B  C  D          G       Aadd9     (D lick)

REFRAIN (licks D, G, D, G, shortened A, pickup, half D, pickup)


VERSE 2, etc.


Transcribed 1/7/1999 by T-rev
More tab available at http://www.t-rev.net

Comments about this tab

No comments/corrections found. Add your own

Complimentary Christian Ringtones
Dadamobile and CGR have teamed up to bring your favorite Christian artists right to your phone. Sign up today and get 10 complementary ringtones!
Tab Country
Did you know CGR has a sister site w/ country guitar tabs? Well we do! Its called Tab Country. It has a great archive with a lot of country tabs.
Rockin Tabs
Are you looking for a site that has rock guitar tabs? Then Rockintabs.com is the place for you. It is a budding site with many rock guitar tabs. Submit your tab today.
Tab Gallery
Tab Gallery has a compilation of christian, rock, and country tabs all in one place. Come visit us.