Guitar Tabs
song title    band name

Join Us Today!

Don't strum alone...
be a part of the largest online Christian music community. Browse thousands of guitar tabs and chat w/ musicians like yourself.


It's Free!

Third Day - You Make Me Mad

This tab has been rated a 5.00 out of 5 for accuracy. (2 votes)Sorry, but you must be logged in to rate this tab.
Click here to log-in, or you can click here to register.
(Registration is free)

All songs owned by corresponding publishing company. If you make copies of any song on this website, be sure to report your usage to CCLI.
Author/Artist: Third Day
Title: You Make Me Mad
Album: Conspiracy #5
Transcribed by: Mark
Added to by: Joshua Durand joshuatucker@juno.com
Email: calvin@bright.net


This is a correction from the last time I tabbed this
song.  I didn't relize it till I sent it in.  The song is in 
drop D tuning.  DADGBE


-------------------------------
--------3/5\3------------------
-------------------------------
-------------------------------
-------------------------------
--0--0-------------------------
Play 24X through first
verse                                                 

-------------------------------
-------5\3---------------------
-------------------------------
-0-0---------------------------
-------------------------------
-------------------------------
This is what I came up with that sounded as close to the CD as possible,
I have a relly good stereo and you can hear almost every single note and
this is what I came up with.  I fooled with it both clean and dist. and
it sounds pretty close to the original.  If anyone can help me with
tabbing some Third Day, Rebecca St. James and Jars songs I'd appreciate
it. :)

Verse:


------------------------------------------------------------------------------
------------------------------------------------------------------------------
------------------------------------------------------------------------------
-5----5-----5-----5------5-----5----8----8-----8------8-----7-8-7-8-7-8-7-8---
-5----5-----5-----5------5-----5----8----8-----8------8-----7-8-7-8-7-8-7-8---
-5----5-----5-----5------5-----5----8----8-----8------8-----7-8-7-8-7-8-7-8---


------------------------------------------------------------------------------
------------------------------------------------------------------------------
--7----7----------------------------------------------------------------------
--7----7------3----3------------5-----5--------5------------------------------
--5----5------3----3------------5-----5--------5------------------------------
--------------3----3------------5-----5--------5------------------------------


------------------------------------------------------------------------------
------------------------------------------------------------------------------
--7----7----------------------------------------------------------------------
--7----7------3----3------------5-----5--------5------------------------------
--5----5------3----3------------5-----5--------5------------------------------
--------------3----3------------5-----5--------5------------------------------


------------------------------------------------------------------------------
------------------------------------------------------------------------------
--7----7----------------------------------------------------------------------
--7----7------3----3------------5-----5--------5------------------------------
--5----5------3----3------------5-----5--------5------------------------------
--------------3----3------------5-----5--------5------------------------------


------------------------------------------------------------------------------
------------------------------------------------------------------------------
--7----7----------------------------------------------------------------------
--7----7------3----3------------5-----5--------5------------------------------
--5----5------3----3------------5-----5--------5------------------------------
--------------3----3------------5-----5--------5------------------------------


------------------------------------------------------------------------------
--------3/5\3-----------------------------------------------------------------
------------------------------------------------------------------------------
------------------------------------------------------------------------------
------------------------------------------------------------------------------
--0--0------------------------------------------------------------------------
Play 16X through 2nd
verse                                                   


2nd Verse:



------------------------------------------------------------------------------
------------------------------------------------------------------------------
------------------------------------------------------------------------------
--5-----5-------5--------5----------8-------8---------------7-8-7-8-7-8-7-8---
--5-----5-------5--------5----------8-------8---------------7-8-7-8-7-8-7-8---
--5-----5-------5--------5----------8-------8---------------7-8-7-8-7-8-7-8---


------------------------------------------------------------------------------
------------------------------------------------------------------------------
--7----7----------------------------------------------------------------------
--7----7-------3-----3------------5-----5-------5-----------------------------
--5----5-------3-----3------------5-----5-------5-----------------------------
---------------3-----3------------5-----5-------5-----------------------------
Play
4X                                                                      


------------------------------------------------------------------------------
--------3/5\3-----------------------------------------------------------------
------------------------------------------------------------------------------
------------------------------------------------------------------------------
------------------------------------------------------------------------------
--0--0------------------------------------------------------------------------
                                                                              

I hope this helps!

Comments about this tab

No comments/corrections found. Add your own

Complimentary Christian Ringtones
Dadamobile and CGR have teamed up to bring your favorite Christian artists right to your phone. Sign up today and get 10 complementary ringtones!
Tab Country
Did you know CGR has a sister site w/ country guitar tabs? Well we do! Its called Tab Country. It has a great archive with a lot of country tabs.
Rockin Tabs
Are you looking for a site that has rock guitar tabs? Then Rockintabs.com is the place for you. It is a budding site with many rock guitar tabs. Submit your tab today.
Tab Gallery
Tab Gallery has a compilation of christian, rock, and country tabs all in one place. Come visit us.