Guitar Tabs
song title    band name

Join Us Today!

Don't strum alone...
be a part of the largest online Christian music community. Browse thousands of guitar tabs and chat w/ musicians like yourself.


It's Free!

This tab has not yet been rated for accuracy.Sorry, but you must be logged in to rate this tab.
Click here to log-in, or you can click here to register.
(Registration is free)

All songs owned by corresponding publishing company. If you make copies of any song on this website, be sure to report your usage to CCLI.
Title: Underwater
Author: Third Day
Album: Time(Bonus Southern Tracks)
Copyright: New Springs Publishing, Inc.

This is only the tab. I would give you the words but I can't understand
Mac, and plus some one else already did a chord tab with all the words.
R1 is the opening solo. R2 is what is played behind R1 and after choruses.
R3 is played after R2, right before the solo. R4 is the deal being played
coming out of the chorus. I really wish I knew what effects he is using.
It sounds so cool. The D major flat five, as it is pronounced, is played
during the outro. You play that and a D and switch between those two. Just
listen. I guess the second guitar is playing a D5, I don't know. I only did
the two electric guitars even though Mac is playing his acoustic.-Kent-

                A                  G              F    G      A
Gui1 E-----------------------------------------------------------------
R1   B------8-10-10-10-8h10-10-10-12b-8-10--8-10-12b-----------------8-
     G--7h9-------------------------------------------7b9r7-7----7h9---
     D--------------------------------------------------------7--------
     A-----------------------------------------------------------------
     E-----------------------------------------------------------------

                               G                  F    G       A
     E-----------------------------------------------------------------
     B--10-10-10-8h10-10-10-10-12b-r12-10-8--8-10-12b------------------
     G-------------------------------------------------7b9r7-7---------
     D---------------------------------------------------------7-------
     A-----------------------------------------------------------------
     E-----------------------------------------------------------------

        A              G   F  G  A         A              G   F  E7 D
Gui2 E---------------------5--7--9--    |---------------------5--3--2--
R2   B------------------------------ R3 |------------------------------
     G--6--6/7/9-9/14--12-----------    |--6--6/7/9-9/14--12-----------
     D--x--x-----x-----x---3--5--7--    |--x--x-----x-----x---3--2--0--
     A--4--4/5/7-7/12--10-----------    |--4--4/5/7-7/12--10-----------
     E------------------------------    |------------------------------

        D                        Dmaj-5
Gui1 E-------------              E-----
R4   B-------------              B--3--
     G--6-7-9/10~--              G--1--
     D-------------              D--0--
     A-------------              A-----
     E-------------              E-----

        A                        G                             F
Gui1 E--17----17----17----17-----17----17----17----17------------------
solo B--20b22-20b22-20b22-20b22--20b22-20b22-20b22-20b22---------------
     G----------------------------------------------------17-19-19b21--

         E7      A                                     G
     E-------------------------------------------------17----17--------
     B-------------------------------------------------20b22-20b22-----
     G--21r19-17-19--17-19-17-19-17-19-17-19-17-19-17------------------

                         F    E7  A               G F             E7
     E--17----17--------20b22r-----------------------------------------
     B--20b22-20b22--17------------------------------------------------
     G--------------------------21rrrrrrrrrrrrr19--17--17-19--19b21----

               F            E7
     E----------------------------
     B----------------------------
     G--17-19--19b--17-19--19b21--

Comments about this tab

No comments/corrections found. Add your own

Complimentary Christian Ringtones
Dadamobile and CGR have teamed up to bring your favorite Christian artists right to your phone. Sign up today and get 10 complementary ringtones!
Tab Country
Did you know CGR has a sister site w/ country guitar tabs? Well we do! Its called Tab Country. It has a great archive with a lot of country tabs.
Rockin Tabs
Are you looking for a site that has rock guitar tabs? Then Rockintabs.com is the place for you. It is a budding site with many rock guitar tabs. Submit your tab today.
Tab Gallery
Tab Gallery has a compilation of christian, rock, and country tabs all in one place. Come visit us.