Guitar Tabs
song title    band name

Join Us Today!

Don't strum alone...
be a part of the largest online Christian music community. Browse thousands of guitar tabs and chat w/ musicians like yourself.


It's Free!

Newsboys - Tide, The

This tab has been rated a 5.00 out of 5 for accuracy. (2 votes)Sorry, but you must be logged in to rate this tab.
Click here to log-in, or you can click here to register.
(Registration is free)

All songs owned by corresponding publishing company. If you make copies of any song on this website, be sure to report your usage to CCLI.
Song: The Tide
Artist: Newsboys
Album: Step Up to the Microphone
Tab submitted by: Mindy Bayko (michelebayko@cs.com)

This is just the intro tabs, it's also what's played behind the first verse.

NOTE:the "-2-" is A chord and you've got to strum it, but strum ONLY the strings
          -2-  you're holding down.        
          -2- 

     the "---"  is also a strum, but again strum only the strings you hold down.
         "-7-"  and also,just bar the 1st, 2nd and 3rd strings on the 7th
         "-8-"  fret, it makes the hammering a ton easier.  But don't hit
                the first string it sounds awful when you do.

h = hammer
^ = lift off

E--------------0--|
B----8-7h8^7---2--|
G----7---------2--|
D--------------2--|
A-----------------|
E-0---------------|

E-------------------------------|
B-------8-7h8^7----2-3-5-7-5-7--|
G-------7-----------------------|
D-------------------------------|
A------------------0-2-4-5-4-5--|
E----0--------------------------|

E--------------0--|
B----8-7h8^7---2--|
G----7---------2--|
D--------------2--|
A-----------------|
E-0---------------|

E-------------------------|
B-------8-7h8^7----2-3-5--|
G-------7-----------------|
D-------------------------|
A------------------0-2-4--|
E----0--------------------|

Repeat all of that however many times, until the chorus.  The previously posted
chords for The Tide are correct. THIS IS EXACTLY CORRECT.  IT IS EXACTLY THE
WAY IT IS PLAYED ON THE CD.

Have fun, God Bless - Mindy

Comments about this tab

No comments/corrections found. Add your own

Complimentary Christian Ringtones
Dadamobile and CGR have teamed up to bring your favorite Christian artists right to your phone. Sign up today and get 10 complementary ringtones!
Tab Country
Did you know CGR has a sister site w/ country guitar tabs? Well we do! Its called Tab Country. It has a great archive with a lot of country tabs.
Rockin Tabs
Are you looking for a site that has rock guitar tabs? Then Rockintabs.com is the place for you. It is a budding site with many rock guitar tabs. Submit your tab today.
Tab Gallery
Tab Gallery has a compilation of christian, rock, and country tabs all in one place. Come visit us.