Guitar Tabs
song title    band name

Join Us Today!

Don't strum alone...
be a part of the largest online Christian music community. Browse thousands of guitar tabs and chat w/ musicians like yourself.


It's Free!

This tab has been rated a 5.00 out of 5 for accuracy. (2 votes)Sorry, but you must be logged in to rate this tab.
Click here to log-in, or you can click here to register.
(Registration is free)

All songs owned by corresponding publishing company. If you make copies of any song on this website, be sure to report your usage to CCLI.
Title: Good Coffee, Strong Coffee (The Coffee Song) 
Artist: Jars of Clay 
Album: Seatbelt Tuba 
Copyright 1997 Essential Record 
Tabbed by: T.C. Long (tlong@comp.uark.edu) 

--------------------------------------------------------- 
This is from Seatbelt Tuba, the bonus CD that came with 
Much Afraid if you bought it through Family Christian 
Bookstores.  Much thanks to David Norwood 
(davidnorwood@earthlink.net) for his original post. 
And a special thanks to Alex Chen 
thatalex@thewatercooler.com) for correcting the 
second cord in the jazz bridge. Great ear, my friend!!! 
--------------------------------------------------------- 
  

Intro: 
e---7-----7--7--+---5-----------+ 
B---8-----8--8--|---5-----------| 
G---7-----7--7--|---5-----------| 
D---9-----9--9--|---5-----------|  (X2) 
A---7-----7--7--|---7-----------| 
E---7-----7--7--+---5-----------+ 
    1 & 2 &  3 &    tacet... 

e---7-----7--7--+---5-----5--5--+---3-----3--3--+---3--2----0----+ 
B---8-----8--8--|---5-----5--5--|---3-----3--3--|---3--3----3----| 
G---7-----7--7--|---5-----5--5--|---4-----4--4--|---2--2----2----| 
D---9-----9--9--|---5-----5--5--|---5-----5--5--|---0--0----0----| 
A---7-----7--7--|---7-----7--7--|---5-----5--5--|---x--x----x----| 
E---7-----7--7--+---5-----5--5--+---3-----3--3--+---x--x----x----+ 
    1 & 2 &  3 &    1 & 2 &  3 &    1 & 2 &  3 &    1  &  2 & 3 & 

e---7-----7--7--+---5-----5--5--+---3-----3--3--+---2------------+ 
B---8-----8--8--|---5-----5--5--|---3-----3--3--|---3------------| 
G---7-----7--7--|---5-----5--5--|---4-----4--4--|---2------------| 
D---9-----9--9--|---5-----5--5--|---5-----5--5--|---0------------| 
A---7-----7--7--|---7-----7--7--|---5-----5--5--|---x------------| 
E---7-----7--7--+---5-----5--5--+---3-----3--3--+---x------------+ 
    1 & 2 &  3 &    1 & 2 &  3 &    1 & 2 &  3 &    tacet... 

Verse 1: 

e---7-----7--7--+---5-----5--5--+---3-----3--3--+---3--2----0----+ 
B---8-----8--8--|---5-----5--5--|---3-----3--3--|---3--3----3----| 
G---7-----7--7--|---5-----5--5--|---4-----4--4--|---2--2----2----| 
D---9-----9--9--|---5-----5--5--|---5-----5--5--|---0--0----0----| 
A---7-----7--7--|---7-----7--7--|---5-----5--5--|---x--x----x----| 
E---7-----7--7--+---5-----5--5--+---3-----3--3--+---x--x----x----+ 
    1 & 2 &  3 &    1 & 2 &  3 &    1 & 2 &  3 &    1  &  2 & 3 & 


e---7-----7--7--+---5-----5--5--+---3-----3--3--+---3--2----0----+ 
B---8-----8--8--|---5-----5--5--|---3-----3--3--|---3--3----3----| 
G---7-----7--7--|---5-----5--5--|---4-----4--4--|---2--2----2----| 
D---9-----9--9--|---5-----5--5--|---5-----5--5--|---0--0----0----| 
A---7-----7--7--|---7-----7--7--|---5-----5--5--|---x--x----x----| 
E---7-----7--7--+---5-----5--5--+---3-----3--3--+---x--x----x----+ 
    1 & 2 &  3 &    1 & 2 &  3 &    1 & 2 &  3 &    1  &  2 & 3 & 


e---7-----7--7--+---5-----5--5--+---3-----3--3--+---2------------+ 
B---8-----8--8--|---5-----5--5--|---3-----3--3--|---3------------| 
G---7-----7--7--|---5-----5--5--|---4-----4--4--|---2------------| 
D---9-----9--9--|---5-----5--5--|---5-----5--5--|---0------------| 
A---7-----7--7--|---7-----7--7--|---5-----5--5--|---x------------| 
E---7-----7--7--+---5-----5--5--+---3-----3--3--+---x------------+ 
    1 & 2 &  3 &    1 & 2 &  3 &    1 & 2 &  3 &    tacet... 


e---7-----7--7--+---5-----5--5--+---3-----3--3--+---2--2----2----+ 
B---8-----8--8--|---5-----5--5--|---3-----3--3--|---3--3----3----| 
G---7-----7--7--|---5-----5--5--|---4-----4--4--|---2--2----2----| 
D---9-----9--9--|---5-----5--5--|---5-----5--5--|---0--0----0----| 
A---7-----7--7--|---7-----7--7--|---5-----5--5--|---x--x----x----| 
E---7-----7--7--+---5-----5--5--+---3-----3--3--+---x--x----x----+ 
    1 & 2 &  3 &    1 & 2 &  3 &    1 & 2 &  3 &    1  &  2 & 3 & 


Chorus: 

    E       F#        D         A 

    E       F#        D         A 

    E       F#        D         A 

    E       F#        D         A 

Lead into Verse 2: 

e---7-----7--7--+---5-----5--5--+---3-----3--3--+---3--2----0----+ 
B---8-----8--8--|---5-----5--5--|---3-----3--3--|---3--3----3----| 
G---7-----7--7--|---5-----5--5--|---4-----4--4--|---2--2----2----| 
D---9-----9--9--|---5-----5--5--|---5-----5--5--|---0--0----0----| 
A---7-----7--7--|---7-----7--7--|---5-----5--5--|---x--x----x----| 
E---7-----7--7--+---5-----5--5--+---3-----3--3--+---x--x----x----+ 
    1 & 2 &  3 &    1 & 2 &  3 &    1 & 2 &  3 &    1  &  2 & 3 & 

e---7-----7--7--+---5-----5--5--+---3-----3--3--+---2------------+ 
B---8-----8--8--|---5-----5--5--|---3-----3--3--|---3------------| 
G---7-----7--7--|---5-----5--5--|---4-----4--4--|---2------------| 
D---9-----9--9--|---5-----5--5--|---5-----5--5--|---0------------| 
A---7-----7--7--|---7-----7--7--|---5-----5--5--|---x------------| 
E---7-----7--7--+---5-----5--5--+---3-----3--3--+---x------------+ 
    1 & 2 &  3 &    1 & 2 &  3 &    1 & 2 &  3 &    tacet... 

Verse 2: 

e---7-----7--7--+---5-----5--5--+---3-----3--3--+---3--2----0----+ 
B---8-----8--8--|---5-----5--5--|---3-----3--3--|---3--3----3----| 
G---7-----7--7--|---5-----5--5--|---4-----4--4--|---2--2----2----| 
D---9-----9--9--|---5-----5--5--|---5-----5--5--|---0--0----0----| 
A---7-----7--7--|---7-----7--7--|---5-----5--5--|---x--x----x----| 
E---7-----7--7--+---5-----5--5--+---3-----3--3--+---x--x----x----+ 
    1 & 2 &  3 &    1 & 2 &  3 &    1 & 2 &  3 &    1  &  2 & 3 & 


e---7-----7--7--+---5-----5--5--+---3-----3--3--+---2------------+ 
B---8-----8--8--|---5-----5--5--|---3-----3--3--|---3------------| 
G---7-----7--7--|---5-----5--5--|---4-----4--4--|---2------------| 
D---9-----9--9--|---5-----5--5--|---5-----5--5--|---0------------| 
A---7-----7--7--|---7-----7--7--|---5-----5--5--|---x------------| 
E---7-----7--7--+---5-----5--5--+---3-----3--3--+---x------------+ 
    1 & 2 &  3 &    1 & 2 &  3 &    1 & 2 &  3 &    tacet ... 


e---7-----7--7--+---5-----5--5--+---3-----3--3--+---3--2----0----+ 
B---8-----8--8--|---5-----5--5--|---3-----3--3--|---3--3----3----| 
G---7-----7--7--|---5-----5--5--|---4-----4--4--|---2--2----2----| 
D---9-----9--9--|---5-----5--5--|---5-----5--5--|---0--0----0----| 
A---7-----7--7--|---7-----7--7--|---5-----5--5--|---x--x----x----| 
E---7-----7--7--+---5-----5--5--+---3-----3--3--+---x--x----x----+ 
    1 & 2 &  3 &    1 & 2 &  3 &    1 & 2 &  3 &    1  &  2 & 3 & 


e---7-----7--7--+---5-----5--5--+---3-----3--3--+---2--2----2----+ 
B---8-----8--8--|---5-----5--5--|---3-----3--3--|---3--3----3----| 
G---7-----7--7--|---5-----5--5--|---4-----4--4--|---2--2----2----| 
D---9-----9--9--|---5-----5--5--|---5-----5--5--|---0--0----0----| 
A---7-----7--7--|---7-----7--7--|---5-----5--5--|---x--x----x----| 
E---7-----7--7--+---5-----5--5--+---3-----3--3--+---x--x----x----+ 
    1 & 2 &  3 &    1 & 2 &  3 &    1 & 2 &  3 &    1  &  2 & 3 & 
  

Chorus 

    E       F#        D         A 

    E       F#        D         A 

    E       F#        D         A 

    E       F#        D         A 

Jazz Bridge: (by now you should have the beat) 

e---7-----7--7--+--10L7---7--7--+--7-----7--7--+--7-----7--7--+ 
B---8-----8--8--|---8-----8--8--|--8-----8--8--|--8-----8--8--| 
G---7-----7--7--|---7-----7--7--|--7-----7--7--|--7-----7--7--| 
D---9-----9--9--|---9-----9--9--|--9-----9--9--|--9-----9--9--| 
A---7-----7--7--|---7-----7--7--|--7-----7--7--|--7-----7--7--| 
E---7-----7--7--+---7-----7--7--+--7-----7--7--+--7-----7--7--+ 


e---3-----3--3--+---3-----3--3--+--3-----3--3--+--3-----3--3--+ 
B---3-----3--3--|---3-----3--3--|--3-----3--3--|--3-----3--3--+ 
G---5-----5--5--|---5-----5--5--|--5-----5--5--|--5-----5--5--+ 
D---3-----3--3--|---3-----3--3--|--3-----3--3--|--3-----3--3--+ 
A---5-----5--5--|---5-----5--5--|--5-----5--5--|--5-----5--5--+ 
E---3-----3--3--+---3-----3--3--+--3-----3--3--+--3-----3--3--+ 


e---7-----7--7--+--10L7---7--7--+--7-----7--7--+--7-----7--7--+ 
B---8-----8--8--|---8-----8--8--|--8-----8--8--|--8-----8--8--| 
G---7-----7--7--|---7-----7--7--|--7-----7--7--|--7-----7--7--| 
D---9-----9--9--|---9-----9--9--|--9-----9--9--|--9-----9--9--| 
A---7-----7--7--|---7-----7--7--|--7-----7--7--|--7-----7--7--| 
E---7-----7--7--+---7-----7--7--+--7-----7--7--+--7-----7--7--+ 


e---3-----3--3--+---3-----3--3--+--3-----3--3--+--3-----3--3--+ 
B---3-----3--3--|---3-----3--3--|--3-----3--3--|--3-----3--3--+ 
G---5-----5--5--|---5-----5--5--|--5-----5--5--|--5-----5--5--+ 
D---3-----3--3--|---3-----3--3--|--3-----3--3--|--3-----3--3--+ 
A---5-----5--5--|---5-----5--5--|--5-----5--5--|--5-----5--5--+ 
E---3-----3--3--+---3-----3--3--+--3-----3--3--+--3-----3--3--+ 


Chorus: 

    E       F#        D         A 

    E       F#        D         A 

    E       F#        D         A 

    E       F#        D         A 

    E       F#        D         A 

    E       F#        D         A 

    E       F#(retard)D         A 

    E 

*** This ending isn't as jazzy as on the CD, but hey, 
    no one will really mind.

Comments about this tab

No comments/corrections found. Add your own

Complimentary Christian Ringtones
Dadamobile and CGR have teamed up to bring your favorite Christian artists right to your phone. Sign up today and get 10 complementary ringtones!
Tab Country
Did you know CGR has a sister site w/ country guitar tabs? Well we do! Its called Tab Country. It has a great archive with a lot of country tabs.
Rockin Tabs
Are you looking for a site that has rock guitar tabs? Then Rockintabs.com is the place for you. It is a budding site with many rock guitar tabs. Submit your tab today.
Tab Gallery
Tab Gallery has a compilation of christian, rock, and country tabs all in one place. Come visit us.