Guitar Tabs
song title    band name

Join Us Today!

Don't strum alone...
be a part of the largest online Christian music community. Browse thousands of guitar tabs and chat w/ musicians like yourself.


It's Free!

This tab has been rated a 4.50 out of 5 for accuracy. (2 votes)Sorry, but you must be logged in to rate this tab.
Click here to log-in, or you can click here to register.
(Registration is free)

All songs owned by corresponding publishing company. If you make copies of any song on this website, be sure to report your usage to CCLI.
Song: Headstrong
Artist: Jars of Clay
Album: The White Elephant Sessions
Written by Dan Haseltine, Matt Odmark, Stephen Mason, Charlie Lowell
Bridge Building Music, Inc. /Pogostick Music/
Tabbed by Grant Hofmann ><>

Well, this is a momentous occasion....my first tablature. I hopefully got
all the parts in.  The previous tab submitted was incomplete in many ways,
so I decided to fill in the gaps.  Several notes: Each verse Riff varies
slightly at the end, but I didn't think this enough to worry about.  I don't
think that the F# in the final Headstrong verse is right, but I couldn't find
that perfect chord, so if you get it, let me know by e-mail.  Finally, thanks
to Katherine for inspiring me to figure out the song and to write it on
tablature to share with all.  Thanks!, God Bless all of you.

Grant Hofmann ><>

Intro:
------------------------------------------------------------------|
------------------------------------------------------------------|
------1-------1-------1-------1-------1---------------1-------1---|
----2---2---2---2---2---2---2---2---2---2---2-2-----2---2---2---2-|
--2-------3-------4-------3---------------3-----3-4-------3-------|
--0-------------------------------0-------------------------------|


Verse 1:
------------------------------------------------------------------|
---------------------------------------------------------------0--|
------1-------1-------1-------1-------1-------1-------1-----1-----|
----2---2---2---2---2---2---2---2---2---2---2---2---2---2---------|
--2-------3-------4-------3---------------3-------4-------3-------|
--0-------------------------------0-------------------------------|
  
F# A F# A
E C C# E

Verse 2:
------------------------------------------------------------------|
---------------------------------------------------------------0--|
------1-------1-------1-------1-------1-------1-------1-----1-----|
----2---2---2---2---2---2---2---2---2---2---2---2---2---2---------|
--2-------3-------4-------3---------------3-------4-------3-------|
--0-------------------------------0-------------------------------|

F# A F# A

[Chorus]
B A E C* C#* C*
B A E C* C#* C*

------------------------------------------------------------------|
---------------------------------------------------------------0--|
------1-------1-------1-------1-------1-------1-------1-----1-----|
----2---2---2---2---2---2---2---2---2---2---2---2---2---2---------|
--2-------3-------4-------3---------------3-------4-------3-------|
--0-------------------------------0-------------------------------|

F# A F# A

B A E C* C#* C*
B A E C* C#* C*
B A E C* C#* C*
B A(bar) A(1st pos.) G#m
G         D


Verse 3:
------------------------------------------------------------------|
---------------------------------------------------------------0--|
------1-------1-------1-------1-------1-------1-------1-----1-----|
----2---2---2---2---2---2---2---2---2---2---2---2---2---2---------|
--2-------3-------4-------3---------------3-------4-------3-------|
--0-------------------------------0-------------------------------|

F# A F# A B A E C* C#*
B A E C* C#* C*
B A E C* C#* C*
B A E C* C#* C*
B A F# 

This here's the ending part:
B        C#       A        F#        B       C#         A       F#
B        C#       A        F#        B       C#         A       F#
B        C#       A        F# 





Chords used

A(bar) (577655)
A(1st pos.) (x03330)
B (799877)
C (x32010) or 
C* (x35500)
C# (9 11 11 10 9 9 ) or
C#* (x46600)
D (xx0232)
E (022100)
F# (244322)
G (355433)
G#m (466444)

Liv <><

Comments about this tab

No comments/corrections found. Add your own

Complimentary Christian Ringtones
Dadamobile and CGR have teamed up to bring your favorite Christian artists right to your phone. Sign up today and get 10 complementary ringtones!
Tab Country
Did you know CGR has a sister site w/ country guitar tabs? Well we do! Its called Tab Country. It has a great archive with a lot of country tabs.
Rockin Tabs
Are you looking for a site that has rock guitar tabs? Then Rockintabs.com is the place for you. It is a budding site with many rock guitar tabs. Submit your tab today.
Tab Gallery
Tab Gallery has a compilation of christian, rock, and country tabs all in one place. Come visit us.