Guitar Tabs
song title    band name

Join Us Today!

Don't strum alone...
be a part of the largest online Christian music community. Browse thousands of guitar tabs and chat w/ musicians like yourself.


It's Free!

This tab has not yet been rated for accuracy.Sorry, but you must be logged in to rate this tab.
Click here to log-in, or you can click here to register.
(Registration is free)

All songs owned by corresponding publishing company. If you make copies of any song on this website, be sure to report your usage to CCLI.
Facing Changes
Hangnail

Symbols:

'U'=upstrum; 'D'=downstrum; '/' or '\'=slide; '*'=palmmute; 'x'=stringmute;

'#[  ]#'=pickgrind; '@'=let ring  'p'=finger lift



The song is played in this order>>:

1] Intro Riff
2] Verse Riff 1
3] Chorus Riff (w/ Ending)
4] Verse Riff 1
5] Chorus Riff (w/o Ending)
6] Bridge Riff
7] Bridge Outro
8] Verse Riff 2
9] Outro Riff


Intro Riff (Practice slow, then as you get better, speed it up)
    
e-------------------------------------------------------------|
B-------------------------------------------------------------| 
G-------------------------------------------------------------| Repeat 1 time
D-------------------------------------------------------------| 
A--5*-5*-5---5*-5*-5*-5*-5---5---5*-5*-5---5*-5*-5*-5*-5---5--|
E-------------------------------------------------------------|
   U  D  D   D  U  D  U  D   D   D  U  D   D  U  D  U  D   D


e-------------------------------------------------------------|
B------------------10--7-7-7----------------------------------|
G----7---9-9-9-----9---9-9-9-------------------6---6-6-6------| Repeat 1 time
D----7---7-7-7-----7---7-7-7-----9---9-9-9-----6---6-6-6------|
A----5---5-5-5-------------------9---9-9-9-----4---4-4-4------|
E--------------------------------7---7-7-7--------------------|
     D   D U D     D   D U D     D   D U D     D   D U D


e-------------------------------------------------------------|
B-------------10--7-------------------------------------------|
G---7---9-----9---9---------------6---6-----7-----------------| Repeat 1 time
D---7---7-----7---7-----9---9-----6---6-----7-----#[22\15]#---|
A---5---5---------------9---9-----4---4-----5-----#[22\15]#---|
E-----------------------7---7---------------------#[22\15]#---|
    D   D     D   D     D   D     D   D     D


Verse Riff 1

e----------------------------------------------------------------------------|
B----------------------------------------------------------------------------|
G---7-7---7-7-7---7---6-6---6-6-6---6---4-4---4-4-4---4----------------------|
D---7-7---7-7-7---7---6-6---6-6-6---6---4-4---4-4-4---4---5-5---5-5-5---5----|
A---5-5---5-5-5---5---4-4---4-4-4---4---2-2---2-2-2---2---5-5---5-5-5---5----|
E---------------------------------------------------------3-3---3-3-3---3----|
    D U   D U D   U   D U   D U D   U   D U   D U D   U   D U   D U D   U


e----------------------------------------------------------------------------|
B----------------------------------------------------------------------------|
G--7-7---7-7-7---7---6-6---6-6-6---6---4-4---4-4-4---4-----------------------|
D--7-7---7-7-7---7---6-6---6-6-6---6---4-4---4-4-4---4---5-------------------|
A--5-5---5-5-5---5---4-4---4-4-4---4---2-2---2-2-2---2---5-------------------|
E--------------------------------------------------------3-------------------|
   D U   D U D   U   D U   D U D   U   D U   D U D   U   D              


e----------------------------------------------------------------------------|
B----------------------------------------------------------------------------|
G---7-7---7-7-7---7---6-6---6-6-6---6---4-4---4-4-4---4----------------------|
D---7-7---7-7-7---7---6-6---6-6-6---6---4-4---4-4-4---4---5-5---5-5-5---5----|
A---5-5---5-5-5---5---4-4---4-4-4---4---2-2---2-2-2---2---5-5---5-5-5---5----|
E---------------------------------------------------------3-3---3-3-3---3----|
    D U   D U D   U   D U   D U D   U   D U   D U D   U   D U   D U D   U


e----------------------------------------------------------------------------|
B----------------------------------------------------------------------------|
G--7-7---7-7-7---7---6-6---6-6-6---6---4-4---4-4-4---4-----------------------|
D--7-7---7-7-7---7---6-6---6-6-6---6---4-4---4-4-4---4---5---5-5-5-5--5---7--|
A--5-5---5-5-5---5---4-4---4-4-4---4---2-2---2-2-2---2---5---5-5-5-5--5---7--|
E--------------------------------------------------------3---3-3-3-3--3---5--|
   D U   D U D   U   D U   D U D   U   D U   D U D   U   D   D U D U  D   D


Chorus Riff

e----------------------------------------------------------------------------|
B----------------------------------------------------------------------------|
G----------------------------------------------------------------------------|
D------------------[5]-x-x--x-x-x---0---0-2-4-2-----#[22\15]#-----7----------|
A----6/7--5-4------[5]-x-x--x-x-x-------------------#[22\15]#-----7----------|
E-------------7----[3]-x-x--x-x-x-------------------#[22\15]#-----5----------|
     D    D D D        D U  D U D   D   D D D D                   D

                                                Ending (played 1st time only)
e-------------------------------------------|--------------------------------|
B-------------------------------------------|--------------------------------|
G-------------------------------------------|-7---7-7-7-7--6-*-6-*-6-*-6-*---|
D---------------[5]-x-x--x-x-x---0--0-2-4-2-|-7---7-7-7-7--6-*-6-*-6-*-6-*---|
A--6/7--5-4-----[5]-x-x--x-x-x--------------|-5---5-5-5-5--4-*-4-*-4-*-4-*---|
E-----------7---[3]-x-x--x-x-x--------------|--------------------------------|
   D    D D D       D U  D U D  D   D D D D    D   D U D U  D   D   D   D


Bridge Riff

e------------------------------------------------------------------------>
B------------------------------------------------------------------------>
G---4--4--x-4--4-4--4--x-x-7--7--x-7--7-7--7--x-x------------------------>
D---4--4--x-4--4-4--4--x-x-7--7--x-7--7-7--7--x-x-7--7--x-7--7-7--7--x-x->
A---2--2--x-2--2-2--2--x-x-5--5--x-5--5-5--5--x-x-7--7--x-7--7-7--7--x-x->
E-------------------------------------------------5--5--x-5--5-5--5--x-x->
    D  D  D U  U D  D  D U D  D  D U  U D  D  D U D  D  D U  U D  D  D U


e--------------------|
B--------------------|
G--------------------|
D--5--5--5-4--5--5---|
A--5--5--5-4--5--5---|
E--3--3--3-2--3--3---|
   D  D  D U  D  D


e------------------------------------------------------------------------>
B------------------------------------------------------------------------>
G---4--4--x-4--4-4--4--x-x-7--7--x-7--7-7--7--x-x------------------------>
D---4--4--x-4--4-4--4--x-x-7--7--x-7--7-7--7--x-x-7--7--x-7--7-7--7--x-x->
A---2--2--x-2--2-2--2--x-x-5--5--x-5--5-5--5--x-x-7--7--x-7--7-7--7--x-x->
E-------------------------------------------------5--5--x-5--5-5--5--x-x->
    D  D  D U  U D  D  D U D  D  D U  U D  D  D U D  D  D U  U D  D  D U


e---------------------------------|
B---------------------------------|
G---------------------------------|
D---5-5-5-5-5-5-5-5-5-5-5-5-5-x---|
A---5-5-5-5-5-5-5-5-5-5-5-5-5-x---|
E---3-3-3-3-3-3-3-3-3-3-3-3-3-x---|
    D U D U D U D U D U D U D U


e------------------------------------------------------------------------>
B------------------------------------------------------------------------>
G---4--4--x-4--4-4--4--x-x-7--7--x-7--7-7--7--x-x------------------------>
D---4--4--x-4--4-4--4--x-x-7--7--x-7--7-7--7--x-x-7--7--x-7--7-7--7--x-x->
A---2--2--x-2--2-2--2--x-x-5--5--x-5--5-5--5--x-x-7--7--x-7--7-7--7--x-x->
E-------------------------------------------------5--5--x-5--5-5--5--x-x->
    D  D  D U  U D  D  D U D  D  D U  U D  D  D U D  D  D U  U D  D  D U


e-------------------------|
B-------------------------|
G-------------------------|
D--5--5--5-4--5--5--5-4---|
A--5--5--5-4--5--5--5-4---|
E--3--3--3-2--3--3--3-2---|
   D  D  D U  D  D  D U


Bridge Outro

e--------------------------------------------------------------------->
B--------------------------------------------------------------------->
G--------------------------------------------------------------------->
D-----4p0-4p0-4p0-4p0-5------4p0-4p0-4p0-4p0-5------4p0-4p0-4p0-4p0-5->
A--2-2---2---2---2---2----0-0---0---0---0---0------------------------->
E------------------------------------------------3-3---3---3---3---3-->
   D DD  DD  DD  DD  DD   D DD  DD  DD  DD  DD   D DD  DD  DD  DD  DD


e-------------------------|
B-------------------------|
G-------------------------|
D--5--5--5-4--5--5--5-4---|
A--5--5--5-4--5--5--5-4---|
E--3--3--3-2--3--3--3-2---|
   D  D  D U  D  D  D U


e--------------------------------------------------------------------->
B--------------------------------------------------------------------->
G--------------------------------------------------------------------->
D-----4p0-4p0-4p0-4p0-5------4p0-4p0-4p0-4p0-5------4p0-4p0-4p0-4p0-5->
A--2-2---2---2---2---2----0-0---0---0---0---0------------------------->
E------------------------------------------------3-3---3---3---3---3-->
   D DD  DD  DD  DD  DD   D DD  DD  DD  DD  DD   D DD  DD  DD  DD  DD


e------------------------------|
B------------------------------|
G------------------------------|
D--5--5--5-4--5--5--5-4---7@---|
A--5--5--5-4--5--5--5-4---7@---|
E--3--3--3-2--3--3--3-2---5@---|
   D  D  D U  D  D  D U   D


Verse Riff 2

e----------------------------------|
B----------------------------------|
G---7---7-7-7-7--6-*-6-*-6-*-6-*---|
D---7---7-7-7-7--6-*-6-*-6-*-6-*---|
A---5---5-5-5-5--4-*-4-*-4-*-4-*---|
E----------------------------------|
    D   D U D U  D   D   D   D


e----------------------------------------------------------------------------|
B----------------------------------------------------------------------------|
G---7-7---7-7-7---7---6-6---6-6-6---6---4-4---4-4-4---4----------------------|
D---7-7---7-7-7---7---6-6---6-6-6---6---4-4---4-4-4---4---5-5---5-5-5---5----|
A---5-5---5-5-5---5---4-4---4-4-4---4---2-2---2-2-2---2---5-5---5-5-5---5----|
E---------------------------------------------------------3-3---3-3-3---3----|
    D U   D U D   U   D U   D U D   U   D U   D U D   U   D U   D U D   U


e------------------------------------------------------>
B------------------------------------------------------>
G--7-7---7-7-7---7---6-6---6-6-6---6---4-4---4-4-4---4->
D--7-7---7-7-7---7---6-6---6-6-6---6---4-4---4-4-4---4->
A--5-5---5-5-5---5---4-4---4-4-4---4---2-2---2-2-2---2->
E------------------------------------------------------>
   D U   D U D   U   D U   D U D   U   D U   D U D   U  


e---------------------------|
B---------------------------|
G---------------------------|
D---5*-5*-5*-5*-5*-5*-5*-5*-|
A---5*-5*-5*-5*-5*-5*-5*-5*-|
E---3*-3*-3*-3*-3*-3*-3*-3*-|
    D  D  D  D  D  D  D  D


e----------------------------------------------------------------------------|
B----------------------------------------------------------------------------|
G---7-7---7-7-7---7---6-6---6-6-6---6---4-4---4-4-4---4----------------------|
D---7-7---7-7-7---7---6-6---6-6-6---6---4-4---4-4-4---4---5-5---5-5-5---5----|
A---5-5---5-5-5---5---4-4---4-4-4---4---2-2---2-2-2---2---5-5---5-5-5---5----|
E---------------------------------------------------------3-3---3-3-3---3----|
    D U   D U D   U   D U   D U D   U   D U   D U D   U   D U   D U D   U


e------------------------------------------------------>
B------------------------------------------------------>
G--7-7---7-7-7---7---6-6---6-6-6---6---4-4---4-4-4---4->
D--7-7---7-7-7---7---6-6---6-6-6---6---4-4---4-4-4---4->
A--5-5---5-5-5---5---4-4---4-4-4---4---2-2---2-2-2---2->
E------------------------------------------------------>
   D U   D U D   U   D U   D U D   U   D U   D U D   U  


e--------------------------------------------------------------------->
B--------------------------------------------------------------------->
G--------------------------------------------------------------------->
D---5*-5*--5*-5*-5*--5*-5*-5*--5*-5*-5*--5*-5*-5*--5*-5*-5*--5*-5*-5*->
A---5*-5*--5*-5*-5*--5*-5*-5*--5*-5*-5*--5*-5*-5*--5*-5*-5*--5*-5*-5*->
E---3*-3*--3*-3*-3*--3*-3*-3*--3*-3*-3*--3*-3*-3*--3*-3*-3*--3*-3*-3*->
    D  U   U  D  U   U  D  U   U  D  U   U  D  U   U  D  U   U  D  U


e---------------------------------|
B------------------7---7-7-7-7\---|
G------------------7---7-7-7-7\---|
D---5*-5*-5*--5*---5---5-5-5-5\---|
A---5*-5*-5*--5*------------------|
E---3*-3*-3*--3*------------------|
    U  D  U   U    D   D U D U

ANY PROBLEMS??? E-MAIL ME AT BRANTW17@YAHOO.COM

Comments about this tab

No comments/corrections found. Add your own

Complimentary Christian Ringtones
Dadamobile and CGR have teamed up to bring your favorite Christian artists right to your phone. Sign up today and get 10 complementary ringtones!
Tab Country
Did you know CGR has a sister site w/ country guitar tabs? Well we do! Its called Tab Country. It has a great archive with a lot of country tabs.
Rockin Tabs
Are you looking for a site that has rock guitar tabs? Then Rockintabs.com is the place for you. It is a budding site with many rock guitar tabs. Submit your tab today.
Tab Gallery
Tab Gallery has a compilation of christian, rock, and country tabs all in one place. Come visit us.