Guitar Tabs
song title    band name

Join Us Today!

Don't strum alone...
be a part of the largest online Christian music community. Browse thousands of guitar tabs and chat w/ musicians like yourself.


It's Free!

4Him - Great Awakening, The

This tab has been rated a 3.00 out of 5 for accuracy. (1 vote)Sorry, but you must be logged in to rate this tab.
Click here to log-in, or you can click here to register.
(Registration is free)

All songs owned by corresponding publishing company. If you make copies of any song on this website, be sure to report your usage to CCLI.
The Great Awakening
Words and Music by
MARK HARRIS
Transcribed by: Stephen Farrior
(CastleF4@yahoo.com)


                                                                        
E-||------------0--2--2-----------3----------------------0-----
B-||---------3-----------------3-----3-----3----------3----3---
G-||*-----2-----------------4-----------4---------------------0
D-||*--0-----------------4-----------------------0h2-----------
A-||------------------------------------------3----------------
E-||-----------------------------------------------------------
         D2              Gmaj7/B              C2                      
          

                                                                        
E---0--------0---||----------------------------------------------
B------3---------||----------------------------------------------
G---------0-----*||----------------------------------------------
D---------------*||----------------------------------------------
A----------------||----------------------------------------------
E----------------||----------------------------------------------
                                                                        

You can replace GM7/B with Bm throughout. 
 
Intro: D2 Gmaj7/B C2 (repeat) 
 
 
Verse: 
 
D2      Gmaj7/B C2     (3 times) 
Am      C/G     F2      D7sus
C 
 
Chorus: G B7 Em G7 Cmaj7 D7sus D7 C2 G D Em C G D 
 
 
Bridge:Em C2 D2 
 
 
2nd Verse: D2 Gmaj7/B C2 D2 Gmaj7/B C2 D2 Gmaj7 C2 Am C/G F2 D7sus G/C 
 
 
CHORUS 
 
 
Em C2 Am B Em C2 Am B Cmaj7 D7sus 
 
 
KEY CHANGE FOR CHORUS 
 
A C#7 F#m A7 Dmaj7 E7 D2 
A C#7 F#m A7 Dmaj7 F#m D A E F#m D A E F#m D A

Comments about this tab

No comments/corrections found. Add your own

Complimentary Christian Ringtones
Dadamobile and CGR have teamed up to bring your favorite Christian artists right to your phone. Sign up today and get 10 complementary ringtones!
Tab Country
Did you know CGR has a sister site w/ country guitar tabs? Well we do! Its called Tab Country. It has a great archive with a lot of country tabs.
Rockin Tabs
Are you looking for a site that has rock guitar tabs? Then Rockintabs.com is the place for you. It is a budding site with many rock guitar tabs. Submit your tab today.
Tab Gallery
Tab Gallery has a compilation of christian, rock, and country tabs all in one place. Come visit us.