Guitar Tabs
song title    band name

Join Us Today!

Don't strum alone...
be a part of the largest online Christian music community. Browse thousands of guitar tabs and chat w/ musicians like yourself.


It's Free!

Among Thorns - Embrace This Place

This tab has been rated a 5.00 out of 5 for accuracy. (2 votes)Sorry, but you must be logged in to rate this tab.
Click here to log-in, or you can click here to register.
(Registration is free)

All songs owned by corresponding publishing company. If you make copies of any song on this website, be sure to report your usage to CCLI.
Embrace This Place
Among Thorns
Copyright 1998 SirReal Publishing Group
tabbed by: Brandon Dycus (the_college_guy@hotmail.com)

CAPO IV

Intro: (* = strum down)
e|-----3---2---|----2h3---3-----|
B|3*----3---3--|-------3--3-----|
G|0*-----0---0-|----------0-----|    (play this twice)
D|2*-----------|----------2-----|
A|2*-----------|----------3-----|
E|0*-----------|----------------|

*** If you have trouble reading the tab I wrote out for the
verse below, here is the basic chord progression:

C     C/B   Am    D     G     G/F#  Em
C     C/B   Am    D     G     G/F#  Em
D     Em    G     C     D

Verse:

e|--3---3---0--|-----0------0h2--|3------3-------------|3------|
B|--3---3---1--|-------3-------3-|3------3-------------|3------|
G|--0---0---2--|----2----2-------|0------0-------------|0------|
D|--2---X---2--|---0-------------|0------0-------------|2------|
A|--3---2---0--|-----------------|2------X-------------|2------|
E|-------------|-----------------|3------2-------------|0------|

e|--3---3---0--|-----0------0h2--|3-------3------------|
B|--3---3---1--|-------3-------3-|3-------3------------|
G|--0---0---2--|----2----2-------|0-------0------------|
D|--2---X---2--|---0-------------|0-------0------------|
A|--3---2---0--|-----------------|2-------X------------|
E|-------------|-----------------|3-------2------------|

e|3------------2-----------|3-------3------------|----0--------|
B|3------------3-----------|3-------3------------|-----3------3|
G|0------------2-----------|0-------0------------|------0------|
D|2------------0-----------|2-------0------------|--2------0h2-|
A|2------------------------|2-------2------------|3------------|
E|0------------------------|0-------3------------|-------------|

e|----2------2h3-----------|
B|------3--------3---------|
G|--2-----2----------------|
D|0------------------------|
A|-------------------------|
E|-------------------------|

REPEAT VERSE

Chorus: (C9=X32033)

G     C9    D     C9
G     C9    D     C9
G     C9    D     C9
G     C9    D   (hold extra measure)
Em*

* play intro on downbeat with the word "place." The intro riff
starts on an Em. That's why I put that there.

The rest of the song is just repeating the verse and chorus.

If you have any questions or suggestions on how to play this
song, please email me, and I would be more than happy to
change or fix part of the song.

This song has really blessed me and the people at my church.
The Holy Spirit really seems to just pour down while this song
is being played. I hope that it can have the same effect on
you!

Comments about this tab

G-Ishee - 2005-11-30

Good job Brandon but I need to make a couple of corrections to your chords. The tab is close so I won't mess with it today. Furthermore, the chords and chord stucture are a bit more involved than what I have put down here. This is a fairly basic version of the song. Here are the chords.

Capo at 4th fret:

INTRO
Em Cadd9 Em Cadd9

VERSE
C G/B Am7 D2 G D/F# Em7

C G/B Am7 D2 G D/F# Em7

D2 C G/B [Am7 Cmaj7/A Am7] [D2 D]

CHORUS
GaddD Cadd9 D Cadd9 GaddD


Add a comment/correction

Complimentary Christian Ringtones
Dadamobile and CGR have teamed up to bring your favorite Christian artists right to your phone. Sign up today and get 10 complementary ringtones!
Tab Country
Did you know CGR has a sister site w/ country guitar tabs? Well we do! Its called Tab Country. It has a great archive with a lot of country tabs.
Rockin Tabs
Are you looking for a site that has rock guitar tabs? Then Rockintabs.com is the place for you. It is a budding site with many rock guitar tabs. Submit your tab today.
Tab Gallery
Tab Gallery has a compilation of christian, rock, and country tabs all in one place. Come visit us.