Guitar Tabs
song title    band name

Join Us Today!

Don't strum alone...
be a part of the largest online Christian music community. Browse thousands of guitar tabs and chat w/ musicians like yourself.


It's Free!

This tab has been rated a 0.00 out of 5 for accuracy. (1 vote)Sorry, but you must be logged in to rate this tab.
Click here to log-in, or you can click here to register.
(Registration is free)

All songs owned by corresponding publishing company. If you make copies of any song on this website, be sure to report your usage to CCLI.
"Ded"
Artist: East West
Album: The Light in Guinnevere's Garden
Tabbed by: Brian Frost (bfrosty515@hotmail.com)

Tuning: B-F#-B-E-G#-C#

|---------|--------|
|---------|--------|
|---------|--------|
|-2-3-5-6-|-2-3-5--|
|-2-3-5-6-|-2-3-5--|
|-2-3-5-6-|-2-3-5--|      
 (7x)     |...on the 8th

|----------------------------------------------|
|----------------------------------------------|
|----------------------------------------------|
|-0-5-0-3-0-5-0-3-0-5-0-3-0-5-0-3-3-0-3-3-0-6--|
|-0-5-0-3-0-5-0-3-0-5-0-3-0-5-0-3-3-0-3-3-0-6--|
|-0-5-0-3-0-5-0-3-0-5-0-3-0-5-0-3-3-0-3-3-0-6--| (2x)

|------------------------------|---------|
|------------------------------|---------|
|------------------------------|---------|
|-0-5-0-3-0-5-0-3-0-5-0-3-0-5--|-2-3-5-6-|
|-0-5-0-3-0-5-0-3-0-5-0-3-0-5--|-2-3-5-6-|
|-0-5-0-3-0-5-0-3-0-5-0-3-0-5--|-2-3-5-6-|      
 (1x)                          | (8x)

B |---|
F#|-5-|
B |---|
This part contains nothing but the vocals and some weird sound effect.
I play this with this note continuously with some phaser and a little
bit of wah pedal. Play around and see what you like best.

|---------|--------|
|---------|--------|
|---------|--------|
|-2-3-5-6-|-2-3-5--|
|-2-3-5-6-|-2-3-5--|
|-2-3-5-6-|-2-3-5--|      
 (7x)     |...on the 8th

|----------------------------------------------|
|----------------------------------------------|
|----------------------------------------------|
|-0-5-0-3-0-5-0-3-0-5-0-3-0-5-0-3-3-0-3-3-0-6--|
|-0-5-0-3-0-5-0-3-0-5-0-3-0-5-0-3-3-0-3-3-0-6--|
|-0-5-0-3-0-5-0-3-0-5-0-3-0-5-0-3-3-0-3-3-0-6--| (2x)

|------------------------------|
|------------------------------|
|------------------------------|
|-0-5-0-3-0-5-0-3-0-5-0-3-0-5--|
|-0-5-0-3-0-5-0-3-0-5-0-3-0-5--|
|-0-5-0-3-0-5-0-3-0-5-0-3-0-5--|     

Comments and suggestions are always welcome... Rock on!                   

Comments about this tab

spazboy20180 - 2004-07-25

dude...wut the heck is this. i had no idea wut i was playing.


Add a comment/correction

Complimentary Christian Ringtones
Dadamobile and CGR have teamed up to bring your favorite Christian artists right to your phone. Sign up today and get 10 complementary ringtones!
Tab Country
Did you know CGR has a sister site w/ country guitar tabs? Well we do! Its called Tab Country. It has a great archive with a lot of country tabs.
Rockin Tabs
Are you looking for a site that has rock guitar tabs? Then Rockintabs.com is the place for you. It is a budding site with many rock guitar tabs. Submit your tab today.
Tab Gallery
Tab Gallery has a compilation of christian, rock, and country tabs all in one place. Come visit us.