Guitar Tabs
song title    band name

Join Us Today!

Don't strum alone...
be a part of the largest online Christian music community. Browse thousands of guitar tabs and chat w/ musicians like yourself.


It's Free!

Third Day - My Hope Is You

This tab has been rated a 4.50 out of 5 for accuracy. (4 votes)Sorry, but you must be logged in to rate this tab.
Click here to log-in, or you can click here to register.
(Registration is free)

All songs owned by corresponding publishing company. If you make copies of any song on this website, be sure to report your usage to CCLI.
Song Name: My Hope Is You
Album: Conspiracy No. 5
Artist: Third Day
Copyright: 1997 New Spring Publishing / ASCAP

Verse 1
C      F/C    C      F/C
C      F/C    C      F/C
C      F/C    C      F/C
C      F/C    C      F/C

Chorus:
C      F/C
C      F/C
Am     Am9
F
C


Verse 2

Chorus

Solo (over chorus)

1st 2 lines of CHORUS Bass, no guitar,
then CHORUS 2X,

=====================================================================
=====================================================================

Song Name: My Hope Is You
Album: Conspiracy No. 5
Artist: Third Day
Copyright: 1997 New Spring Publishing / ASCAP

Although I have the book, I'm not relying on it. I had it
figured before I bought it and that's the way I'll write it out.
Don't waste your money on it either. They did a okay job but
they left out no telling how many measures of music. Guitar 1 is
an acoustic. Guitars 2&3 are electric. Guitar 2 uses a tremolo
for his solos only. Riff1 is the intro and verses. Don't forget
your feedback with Riff2.-Kent- 

Gui1&3   C            Csus4                  ~ =        
 iff1 E------------------------------        h = hammer-on
      B--------1---1-----1---1---1---        r = return
      G---------0---0-----0---0---0--        p = pull-off
      D-----2----2---2h3---3---3-----        = = hold the note out 
      A--3---------------------------        b = bend
      E------------------------------        * = bend the note up a 1/4

Gui2     C5
Riff2 G--5--
      D--5--
      A--3--

Gui1&3   Am         A2      Am     F
Riff3 B-----1---1---0---0---1------1---1---1---1---1---
      G------2---2---2---2----------2---2---2---2---0--
      D-------2---2---2---2---2-3----3---3---3---3-----
      A--0---------------------------------------------

Gui2
Riff4  C (2) (4) C (2) (4) A5 Am A2 A5 F5                       
      
    E-------------------------------------                
    B--1--1-1-1--1--1-1-1-----1--0--------
    G--0--0-0-0--0--0-0-0--2--2--2--2-----
    D--2--0-2-3--2--0-2-3--2--2--2--2--3--
    A--3--3-3-3--3--3-3-3--0--0--0--0--3--
    E----------------------------------1--
   {--------Riff4B-------}

Gui2
Riff5 B--5----5----6----6----8----8----6----6----
      G-----5---5-----5---5-----5---5-----5---5--

Gui1&3 C                      Gui3   F
Riff6                         Riff7     
    E-------------------          E----------------------
    B--1--1-1-1-1-1--1--          B--1----------1--------           
    G--0--0-0-0-0-0--0--          G--2------2-----2---2--  
    D--2--0-2-0-2-3--2--          D--3--3-3---3-----3----
    A--3--3-3-3-3-3--3--          A--3-------------------
    E-------------------          E--1-------------------

After the first and second chorus play Riff4B and Riff1 twice.
After the solo and Mac sings his bit play Riff7.   

Verse 1
Riff1
Riff2
Riff1&3

Verse 2
same as verse 1

Chorus
Riff1&4
Riff3
 
Guitars 1&3 play the chorus during the solo.

Gui2
E--5-----------------8-----8--5-----------------8-----8---15~---15~----
B-----8--5--------6-----6--------8--5--------6-----6---------13~---13~-
G-----------7--5-------------------------7--5--------------------------

E--13~---13~---12~---12~-----------------------15----------------------
B-----13~---13~---13~---13~--15*---------15b17====r15--15*15--13~------
G---------------------------------12h14--------------------------------

This is the outro after the last chorus. During this part play
Riff6.

Gui2
E--5-----------8---8--5-----------------5-----------8---8--5-----------
B----8-5-----6---6------8-5---------------8-5-----6---6------8-5-------
G--------7-5----------------7-5--7b9r7--------7-5----------------7-5---
D----------------------------------------------------------------------

E----8--8--------15-----------------------------------------------17---
B--6---6---15b17====r15--15*15-13--15*15-13-----------------15b17====--
G-------------------------------------------14-12----------------------
D-------------------------------------------------14-12\10-------------

E----------------------------------------------------------------------
B--15*15-13------------------------------------------------------------
G-----------14-12~--------12-------12-14b16r14-12----------------------
D-------------------12h14----12h14----------------14-12\10-12b14r12-10-

Comments about this tab

heir2zion - 2005-01-08

This was an awesome tab, when I listened to the CD it was right. However I think that (Whoever put this tab) you should put the strumming pattern. Although the chords were correct, it was hard for me, as a beginner, to figure out how to imitate the strumming on the CD.


GuitarGluv - 2005-05-29

it was perfect


To You, O Lord, I lift my soul

In you, O God, I place my trust

Do not let me be put to shame

Nor let my enemies triumph over me





My hope is You

Show me your ways

Guide me in truth

In all my days

My hope is You, O Lord




I am, O Lord, filled with Your Love

You are, O God, my salvation

Guard my life and rescue me

My broken sprit shouts

My mended heart cries out...


Chorus

My hope is You

Solo

Chorus(2x)
email me GuitarGluv@Hotmail.com if this was helpful


christian_latin - 2005-06-29

The tabs are really good. They really go with the song. One question.... How do you play A9


Katze - 2005-07-30

Great job on the tab!!!
A9 is played x02200. I think that the C/F is really Csus.


rockstarwannabe - 2005-12-09

I thought that was an A2?!?


Third_Day_Rocks - 2006-07-03

A2 and A9 are virtually the same.


Add a comment/correction

Complimentary Christian Ringtones
Dadamobile and CGR have teamed up to bring your favorite Christian artists right to your phone. Sign up today and get 10 complementary ringtones!
Tab Country
Did you know CGR has a sister site w/ country guitar tabs? Well we do! Its called Tab Country. It has a great archive with a lot of country tabs.
Rockin Tabs
Are you looking for a site that has rock guitar tabs? Then Rockintabs.com is the place for you. It is a budding site with many rock guitar tabs. Submit your tab today.
Tab Gallery
Tab Gallery has a compilation of christian, rock, and country tabs all in one place. Come visit us.