Guitar Tabs
song title    band name

Join Us Today!

Don't strum alone...
be a part of the largest online Christian music community. Browse thousands of guitar tabs and chat w/ musicians like yourself.


It's Free!

Third Day - Love Song

This tab has been rated a 3.92 out of 5 for accuracy. (12 votes)Sorry, but you must be logged in to rate this tab.
Click here to log-in, or you can click here to register.
(Registration is free)

All songs owned by corresponding publishing company. If you make copies of any song on this website, be sure to report your usage to CCLI.
Song Name: Love Song
Album: Third Day
Artist: Third Day
Copyright: 1996 New Spring Publishing / ASCAP

Like many other Third Day songs of this syle this song has 2 guitars in
it.  Most places you can either play the riff or the chord.  If you listen
closely enough, most of the time you can hear both a rythm and a riff.  
Most of the time one is more predominant.  On the intro I am not sure if the 
strums are correct but it will give you a pretty good idea.  I know the 
riffs are right and the hammer on and pull offs from what I can tell.

INTRO:
 Em                 C        D                            G         B7
|-----------------------------------3p2---2-2-2-2-2---------------------------|
|--------0--0-0-0-0---------------3-------3-3-3-3-3--------3------0-----------|
|------0----0-0-0-0-0-0-0-0-0---2---------2-2-2-2-2--------0--------2-2-------|
|----4------2-2p0-0-2-2-2p0h2-0---------0-0-0-0-0-0-0--0---0--------1-1-------|
|--2--------2-2p0-0-3-2-2-3-3--------------------------2---2-0-1-2--2-2-0-2---|
|-0---------0-0-0-0------------------------------------3-3-3----------------0-|

VERSE 1:
Em     C      Riff 1
D      Riff 2
Em     C      Riff 3
D      G
C      G
C      D      Dsus   D  or Riff 7
G      D upstroke    D      Dsus
C      G      D      Dsus2
G      Riff 4
C      Em     Riff 4   Riff 6

VERSE 2: 
Em     C      Riff 1
D      Riff 2
Em     C
D      G
C      G
C      D      Dsus   D
G      D
C      G      D
G      D  or Riff 4
C      Em     D   or Riff 4 then Riff 6

BRIDGE:
Bm     Em
C      G
Bm     Em
C      D
G      D      Dsus 2 D
C      Em     D
G      Riff 4
C      Em     D
Em     D  or Riff 7
G
C9     G
C9     G
C9     G      Riff 6

RIFF 1
 C
|-----------------|
|-----------------|
|---------0-------|
|----0h2-----0----|
|-3---------------|
|-----------------|

RIFF 2
 G            B7
|-3---3-----------2---------|
|-3---3-----------4---------|
|-0---0-----------2---------|
|-0---0--------4--4---------|
|-2---2-0-1-2-----2--0-2----|
|-3-3-3-----------2------0--|

RIFF 3
 C       D
|----------------2-3--|
|----1---------3------|
|------0-----2--------|
|--------2-0----------|
|-3-------------------|
|---------------------|

RIFF 4
 D
|---------3p2-0-----0h2-|
|------3---------3------|
|---2-------------------|
|-0---------------------|
|-----------------------|
|-----------------------|

RIFF 5
 G
|---------------|
|-------0-------|
|-----0---0-----|
|---0-----------|
|-2-------------|
|------------3--|

RIFF6
|--------|
|--------|
|--------|
|--------|
|-0-2----|
|-----0--|

Riff 7
|-------3p2-----0h2---------|
|-----3-----3---------------|
|---2---------2-------------|
|-0-------------------------|
|---------------------------|
|---------------------------|

Comments about this tab

projectxsurvivo - 2004-09-27

Good tab, I learned another way to play the intro, more of a picking way, thought I'd post it just for reference

---------------0-0---------------------0---3^2---0-0^2----
-----0-----0---3------1-0-1-------1^3--3--3---3--3----3---
----0------0---2------0-0-0---0--------2-2-----2-2-----0--
---4------4^5--0------2-0-2---0^2------0---------0--------
--2------2---------33-------33----------------------------
-0------0-------------------------------------------------
It sounds pretty close with the capo on the third fret


paintindablack - 2005-03-25

sounds great but where is riff 5 used i don't see it


blehman - 2006-02-03

Gee, I couldn't help but notice that the person doing the TAB thought there were two guitars but...... I played that track and it was just me. Just thought I should clear the air.

Bob Lehman
blehman54@comcast.net


Add a comment/correction

Complimentary Christian Ringtones
Dadamobile and CGR have teamed up to bring your favorite Christian artists right to your phone. Sign up today and get 10 complementary ringtones!
Tab Country
Did you know CGR has a sister site w/ country guitar tabs? Well we do! Its called Tab Country. It has a great archive with a lot of country tabs.
Rockin Tabs
Are you looking for a site that has rock guitar tabs? Then Rockintabs.com is the place for you. It is a budding site with many rock guitar tabs. Submit your tab today.
Tab Gallery
Tab Gallery has a compilation of christian, rock, and country tabs all in one place. Come visit us.