Guitar Tabs
song title    band name

Join Us Today!

Don't strum alone...
be a part of the largest online Christian music community. Browse thousands of guitar tabs and chat w/ musicians like yourself.


It's Free!

Pax217 - Tonight

This tab has not yet been rated for accuracy.Sorry, but you must be logged in to rate this tab.
Click here to log-in, or you can click here to register.
(Registration is free)

All songs owned by corresponding publishing company. If you make copies of any song on this website, be sure to report your usage to CCLI.
Tonight
Pax217
Album: Engage
Copyright 2002

I'm making a slight correction to the first tab
of this song.  The tuning on the cd is dropped D
tuning, which makes the Intro/Chorus tab different.
This sounds 100% correct, so I'm assuming that's how
they do it.

Tuning: D-A-D-G-B-e

Intro/Chorus:

e-------------------------------------------------------------------|
B-------------------------------------------------------------------|
G-----7-7-7-7-7-77--------------------------------------------------|
D--0*-7-7-7-7-7-77-0-5-5-5-5-5-55--0-4-4-4-4-4-44--0-5-5-5-5-5-55---|
A--0*-5-5-5-5-5-55-0-5-5-5-5-5-55--0-5-5-5-5-5-55--0-5-5-5-5-5-55---|
D--0*--------------0-5-5-5-5-5-55--0-5-5-5-5-5-55--0-5-5-5-5-5-55---|

*let ring a little

This should be right.

all His love
paul

Romans 8:35-39

Comments about this tab

rockin'4God21 - 2005-06-04

IT should go like this


e|-------------------------------------------------------
b|-------------------------------------------------------
g|-------------------------------------------------------
d|--0-12-12-12-12-12-12-0-0-5-5-5-5-5-5-0-0-4-4-4-4-4-4--
a|--0-12-12-12-12-12-12-0-0-5-5-5-5-5-5-0-0-4-4-4-4-4-4--
d|--0-12-12-12-12-12-12-0-0-5-5-5-5-5-5-0-0-4-4-4-4-4-4--


Add a comment/correction

Complimentary Christian Ringtones
Dadamobile and CGR have teamed up to bring your favorite Christian artists right to your phone. Sign up today and get 10 complementary ringtones!
Tab Country
Did you know CGR has a sister site w/ country guitar tabs? Well we do! Its called Tab Country. It has a great archive with a lot of country tabs.
Rockin Tabs
Are you looking for a site that has rock guitar tabs? Then Rockintabs.com is the place for you. It is a budding site with many rock guitar tabs. Submit your tab today.
Tab Gallery
Tab Gallery has a compilation of christian, rock, and country tabs all in one place. Come visit us.