Guitar Tabs
song title    band name

Join Us Today!

Don't strum alone...
be a part of the largest online Christian music community. Browse thousands of guitar tabs and chat w/ musicians like yourself.


It's Free!

This tab has not yet been rated for accuracy.Sorry, but you must be logged in to rate this tab.
Click here to log-in, or you can click here to register.
(Registration is free)

All songs owned by corresponding publishing company. If you make copies of any song on this website, be sure to report your usage to CCLI.
Song: Wife Beaters
Artist: Officer Negative
Album: Dead to the World
Copyright: 1998 Screaming Giant Records
Tabbed by: Andrew (Talon1203@aol.com)
Find other cool stuff @ my site: http://www.angelfire.com/dc/109


Most of the song is just this, but with different tempos:

E ------------------------------------------------------------------------
B ------------------------------------------------------------------------
G ------------------------------------------------------------------------
D --7--7--7--5--5--5------------------------------------------------------
A --5--5--5--3--3--3--5--5--5--7--7--7------------------------------------
E --------------------3--3--3--5--5--5------------------------------------

Sometimes you'll hear this:

E ------------------------------------------------------------------------
B ------------------------------------------------------------------------
G ------------------------------------------------------------------------
D --7--7--7--5--5--5-----------7------------------------------------------
A --5--5--5--3--3--3--5--5--5--5--7--5------------------------------------
E --------------------3--3--3-----5--3------------------------------------

The guitar near the end is still the same notes, just not the chords:

E ------------------------------------------------------------------------
B ------------------------------------------------------------------------
G ------------------------------------------------------------------------
D ------------------------------------------------------------------------
A --5--5--5--3--3--3------------------------------------------------------
E --------------------3--3--3--5--5--5------------------------------------

E ------------------------------------------------------------------------
B ------------------------------------------------------------------------
G ------------------------------------------------------------------------
D ------------------------------------------------------------------------
A --5--5--5--3--3--3-----------5------------------------------------------
E --------------------3--3--3-----5--3------------------------------------

Not a hard song to play, but tons of fun! Check out the cd for the timing,
and keep up that JCHC!!!

Comments about this tab

No comments/corrections found. Add your own

Complimentary Christian Ringtones
Dadamobile and CGR have teamed up to bring your favorite Christian artists right to your phone. Sign up today and get 10 complementary ringtones!
Tab Country
Did you know CGR has a sister site w/ country guitar tabs? Well we do! Its called Tab Country. It has a great archive with a lot of country tabs.
Rockin Tabs
Are you looking for a site that has rock guitar tabs? Then Rockintabs.com is the place for you. It is a budding site with many rock guitar tabs. Submit your tab today.
Tab Gallery
Tab Gallery has a compilation of christian, rock, and country tabs all in one place. Come visit us.