Guitar Tabs
song title    band name

Join Us Today!

Don't strum alone...
be a part of the largest online Christian music community. Browse thousands of guitar tabs and chat w/ musicians like yourself.


It's Free!

Skillet - You Are My Hope

This tab has been rated a 4.00 out of 5 for accuracy. (7 votes)Sorry, but you must be logged in to rate this tab.
Click here to log-in, or you can click here to register.
(Registration is free)

All songs owned by corresponding publishing company. If you make copies of any song on this website, be sure to report your usage to CCLI.
You Are My Hope
Skillet

this is the correct intro

e-----------------------------------------15-15--
B----13---------------13-------------------------
G--------9/10-10----------10/9--10---------------
D-10--------------10-----------------12----------
A------------------------------------------------
E------------------------------------------------

Comments about this tab

Adam K - 2004-01-25

Intro
E-------------------------------------3-----
B-----1----------1--------1-----------------
G-------------------------------------------
D---------2--3-3---3--2-2---2---0--0-------- (x4)
A-3-3---------------------------------------
E-------------------------------------------


pistolpete - 2004-08-18

Intro
e----------------------------------------15--------
B-----13-----------13----------13------------------
G--------9h10-----------10-9-----------------------
D--10----------10------------------12--------------
A--------------------------------------------------
E--------------------------------------------------


pistolpete - 2004-08-18

Intro
e----------------------------------------15--------
B-----13-----------13----------13------------------
G--------9h10-----------10-9-----------------------
D--10----------10------------------12--------------
A--------------------------------------------------
E--------------------------------------------------


pistolpete - 2004-08-18

Whoops!


Emery37 - 2005-01-06

dude which 1 is the right one?


Emery37 - 2005-01-06

i think you guys got it wrong its like this
e---------------------------15------------------------------
B----13------13------13-------------------------------------
G-------9/10----10\9----9\7---------------------------------
D-10--------------------------------------------------------
A-----------------------------------------------------------
E-----------------------------------------------------------


Crissinger4320 - 2005-01-31

I tried this way and it sounds the most accurate
e---------------------------15------------------------------
B----13------13------13-------------------------------------
G-------9/10----10\9----9\7---------------------------------
D-10--------------------------------------------------------
A-----------------------------------------------------------
E-----------------------------------------------------------


JohnM - 2005-07-19

I believe pistolpete's version is exactly how I play it. So I'd try his.


runnin4jesus - 2005-08-26

Every single site i look at is half a step down; my friend checked out yalls tabs and then tried these and these sound better.
e|-----------------------------------16---------------
B|--------14----------14-------14---------------------
G|-----------10\11-------11-10------------------------
D|-----11----------11-------------13------------------
A|----------------------------------------------------
E|----------------------------------------------------


marcus1060 - 2005-10-24

yah, runnin4jesus' sound way better then all the others.


mhpalm - 2007-01-19

It sounds like Y'all are off a couple of notes. This is my perspective on what it sounds like:

Intro Tab
E|------------------------------------|
A|------------------------------------|
D|10----------------------------------|
G|------9/10-------10-9----7----------|
B|---13------13---------13------------|
E|---------------------------15-15-15-|
repeat

Y'all let me know if you think that's wrong or right okay?


Add a comment/correction

Complimentary Christian Ringtones
Dadamobile and CGR have teamed up to bring your favorite Christian artists right to your phone. Sign up today and get 10 complementary ringtones!
Tab Country
Did you know CGR has a sister site w/ country guitar tabs? Well we do! Its called Tab Country. It has a great archive with a lot of country tabs.
Rockin Tabs
Are you looking for a site that has rock guitar tabs? Then Rockintabs.com is the place for you. It is a budding site with many rock guitar tabs. Submit your tab today.
Tab Gallery
Tab Gallery has a compilation of christian, rock, and country tabs all in one place. Come visit us.