Guitar Tabs
song title    band name

Join Us Today!

Don't strum alone...
be a part of the largest online Christian music community. Browse thousands of guitar tabs and chat w/ musicians like yourself.


It's Free!

David Crowder Band, The - Rain Down

This tab has been rated a 2.75 out of 5 for accuracy. (4 votes)Sorry, but you must be logged in to rate this tab.
Click here to log-in, or you can click here to register.
(Registration is free)

All songs owned by corresponding publishing company. If you make copies of any song on this website, be sure to report your usage to CCLI.
Rain Down
All I Can Say
University Baptist Church
Words & Music by David Crowder
c 1998 Inot Music

This is just the acoustic guitar TAB, the electric part should not be too
hard to figure out.  David tunes his guitar all wierd: EAAEBE   Tune your
fourth string (which is tuned to a D in standard tuning) down to the same
tone of your A string.  Also, use palm muting constantly while you are playing.

Verse:
E|-----------------------------------------------------------------------------
B|------5-5-x-x-x-5----x-3-3-1-0-----------------------------------------------
E|--3/5-7-5-x-x-x-5-2/3x-3-3-3-3-2/3----0h2-2h3-3333-7-5-3-3333----------------
A|-----------------------------------2h3--------3333-0-0-0-0000----------------
A|-----------------------------------------------------------------------------
E|-----------------------------------------------------------------------------

For the verses he repeats that over and over.  For the chorus he uses an
electric in standard tuning that plays G , G/F# , and C2

G    320033
G/F# 200033
C2   032033

You can play the acoustic in EAAEBE tuning by using these bar chords (I'm not
going to figure out the chord names cause it don't matter that much):

?  335533
?  533333
?  557755
?  353333

God bless
Questions/comments:  Jonathan Ayoub - Junglejondoc@whc.net

Comments about this tab

warriormusic150 - 2007-09-01

E|-----------0--0--0---0-0-0--0-0--0-----0--0-0---------------------------------------------
B|-----------x--x--x---x-x-x--x-x--x-----x--0-0--0-----------------------------------0-0-0--
E|--0--------9--9--9---9-9-9--7-7--7-p-5-5--4-4--0-------0------0-0-0--4-p-2--2-p-0--0-0-0--
A|--x--------9--9--7---7-7-7--5-5--5-----5--5-5--x-------0-h-2--2-2-2--2------2------2-2-2--
A|--9-sl-10--------------------------------------2-sl-3--3------3-3-3--3------3------3-3-3--
E|--0---------------------------------------------------------------------------------------


warriormusic150 - 2007-09-01

normal tuning half step lower


Add a comment/correction

Complimentary Christian Ringtones
Dadamobile and CGR have teamed up to bring your favorite Christian artists right to your phone. Sign up today and get 10 complementary ringtones!
Tab Country
Did you know CGR has a sister site w/ country guitar tabs? Well we do! Its called Tab Country. It has a great archive with a lot of country tabs.
Rockin Tabs
Are you looking for a site that has rock guitar tabs? Then Rockintabs.com is the place for you. It is a budding site with many rock guitar tabs. Submit your tab today.
Tab Gallery
Tab Gallery has a compilation of christian, rock, and country tabs all in one place. Come visit us.