Guitar Tabs
song title    band name

Join Us Today!

Don't strum alone...
be a part of the largest online Christian music community. Browse thousands of guitar tabs and chat w/ musicians like yourself.


It's Free!

David Crowder Band, The - I Need Words

This tab has been rated a 3.83 out of 5 for accuracy. (6 votes)Sorry, but you must be logged in to rate this tab.
Click here to log-in, or you can click here to register.
(Registration is free)

All songs owned by corresponding publishing company. If you make copies of any song on this website, be sure to report your usage to CCLI.
I Need Words
David Crowder Band

Tune guitar to EAEEBe   (tune G-string DOWN to E, not UP to E)
This is about 95% correct. There are a few things during the chorus 
that Iím not sure if I made up, or just guessed, but itís almost 
perfect.  Beautiful song, and fun to play.  Enjoy!

Intro:
      A/C#	B/D#	     A
e  -----------------------------------------
B ----------0---------0-----------------0--
E --------0---------0----------------------
E ------5---------7------------7h9--7------
A ----4---------6------------0--------------
E ------------------------------------------	3X, then
      A/C#	B/D#	 E
E  -------------------------------------|
B  ---------0---------0-----------------|
E  -------0---------0-------------------|
E  -----5---------7--------0--0h2-2h4---|
A  ---4---------6--------2--------------|
E  -------------------------------------|

Verse:
	 A/C#	  B/D#	    A
e  -------------------------------------------
B  -------------0--------0----------------0---
E  -----------0--------0----------------------
E  ---------5--------7---------7h9--7---------
A  ------4--------6---------0-----------------
E  -------------------------------------------

Chorus:
	E/G#		      A  	      A/C#
e  -------------------------------------------------------
B  ----------------------------------0---------------0----
E  --------------------------------0---------------0------
E  ---------0-0h2--2h4-----------0---------------5--------
A  -------2-------------------0---------------4-----------
E  -----4-------------------------------------------------

	B
e  -------------0h2--------
B  ------------------------
E  ----------0-------------
E  --------2---------------
A  ------2-----------------
E  ------------------------	2x

Out:
         A		       A/C#     B/D#
e  ------------------------------------------
B  ------------------------0---------0-----
E  ----------------0-----0---------0--------
E  -------7h9--7-------5---------7------------
A  ---0--------------4---------6-------------
E  ------------------------------------------	4x
       E/G# 
e  -------------------------------0---|
B  ------------------------0----------|
E  -----------------------------------|
E  -------0-0h2--2h4------------------|
A  ----2------------------------------|
E  --4--------------------------------|

Chords used:
	EAEEBe
A/C#	x4500x
B/D#	x6700x
A	x07000 (intro, vs., & out)
E	020200
E/G#	420200 or 400200
B	x22002
A	x00000 (chorus)

Any questions, e-mail me at williamwallace001@hotmail.com 

Comments about this tab

ldsmn87 - 2004-03-10

This is one of the most powerful songs out today. I love that you took the time to figure it out.......just one thing, though.

The end of the intro and the end of the song go like this
e-----------------0-
B-------------0-----
E----------4--------
E------0h2------0---
A----2--------------
E--0----------------

other than that, I give it 5 stars!


goobernmeeps - 2004-12-10

Try using a slide at the end of the first measure of the intro. i sounds much better.

Intro:
A/C# B/D# A
e -----------------------------------------
B ----------0---------0-----------------0--
E --------0---------0----------------------
E ------5---------7------------7/9--7------
A ----4---------6------------0--------------
E ------------------------------------------ 3X, then

And at the end of the intro try using this hammer-on. It's much easier to get to.

A/C# B/D# E
E -------------------------------------|
B ---------0---------0-----------------|
E -------0---------0-------------------|
E -----5---------7---------------------|
A ---4---------6---------7-7h9h11------|
E ----------------------0--------------|


crowderboy540 - 2006-01-06

i think the end of the verse sounds best if played like this

e -----------------0-----------
b -------------0---------------
g ---------------0-------------
d -----0h2/4-------------------
a ---2-------------------------
e -0---------------------------

otherwise this is exactly how i play it. great tab and great song


Add a comment/correction

Complimentary Christian Ringtones
Dadamobile and CGR have teamed up to bring your favorite Christian artists right to your phone. Sign up today and get 10 complementary ringtones!
Tab Country
Did you know CGR has a sister site w/ country guitar tabs? Well we do! Its called Tab Country. It has a great archive with a lot of country tabs.
Rockin Tabs
Are you looking for a site that has rock guitar tabs? Then Rockintabs.com is the place for you. It is a budding site with many rock guitar tabs. Submit your tab today.
Tab Gallery
Tab Gallery has a compilation of christian, rock, and country tabs all in one place. Come visit us.