Guitar Tabs
song title    band name

Join Us Today!

Don't strum alone...
be a part of the largest online Christian music community. Browse thousands of guitar tabs and chat w/ musicians like yourself.


It's Free!

Paul Colman Trio - Sun-Stars-Moon

This tab has been rated a 5.00 out of 5 for accuracy. (1 vote)Sorry, but you must be logged in to rate this tab.
Click here to log-in, or you can click here to register.
(Registration is free)

All songs owned by corresponding publishing company. If you make copies of any song on this website, be sure to report your usage to CCLI.
Paul Colman Trio
Sun-Stars-Moon
From the Album "New Map Of The World"
Tabbed by Ben Borman

Capo 1st Fret.

Intro and verse:

E--------0-------------5---4---2---0---
B----------0------------0---0---0---0--
G----------------2-4-----0---0---0---0-
D----2------2h4-----2------------------
A--0-----------------------------------
E--------------------------------------

(play over as necessary)

Pre-Chorus:

E--0--1----2--0--
B--2----2--3--0--
D--1-------2--2--
G--2-------0--2--
A--0-------X--0--
E--X-------X--0--

Chorus:  A2-C#m-D* A2-C#m-D*-E(7th Fret) 

D*: (relative to capo)
-0-
-0-
-7-
-7-
-5-
-0-

I'm not 100% sure about the pre-chorus. E-mail me with corrections
or suggestions or if you know who I am. beejayare@hotmail.com 

CGR is an awesome site!!

Comments about this tab

Siwelb - 2004-05-27

Here's the way I play the arpeggiation:

E|--------0------------------------5----4--------2---------0--|
B|-------------------------------2----2-------2---------2-----|
G|-----------------------------2----2------2---------2--------|
D|-----2-------------2h4--------------------------------------|
A|--0---------0h2h4-------2-----------------------------------|
E|------------------------------------------------------------|

And the chords:

Pre-chorus-
Dmaj7 (2 measures) E E/G#

Chorus-
Asus2 Bsus4/G# D/F# Esus4 E
Asus2 Bsus4/G# D/F# Dm

(Bsus4/G#)
e|0
B|0
G|x
D|2
A|x
E|4


Mark Bir - 2004-10-11

Hi, I'm a first time user. This song is played with capo on 3rd fret. Not sure about the tabs though.Don't know how to work the tab thingy. PC3 have played live twice at church and he plays this on fret 3.


nirmal jacob - 2005-12-29

hi, ,I think this song is played with capo on 3rd fret and the intro goes like this

E--------3-------------3---2---0---0---
B----------3------------3---3---3------
G------------------------2---2---2--2--
D---------------0-2--------------------
A----2------0h2-----0------------------
E--3-----------------------------------



Add a comment/correction

Complimentary Christian Ringtones
Dadamobile and CGR have teamed up to bring your favorite Christian artists right to your phone. Sign up today and get 10 complementary ringtones!
Tab Country
Did you know CGR has a sister site w/ country guitar tabs? Well we do! Its called Tab Country. It has a great archive with a lot of country tabs.
Rockin Tabs
Are you looking for a site that has rock guitar tabs? Then Rockintabs.com is the place for you. It is a budding site with many rock guitar tabs. Submit your tab today.
Tab Gallery
Tab Gallery has a compilation of christian, rock, and country tabs all in one place. Come visit us.