Guitar Tabs
song title    band name

Join Us Today!

Don't strum alone...
be a part of the largest online Christian music community. Browse thousands of guitar tabs and chat w/ musicians like yourself.


It's Free!

Zao - Desire The End

This tab has been rated a 3.00 out of 5 for accuracy. (1 vote)Sorry, but you must be logged in to rate this tab.
Click here to log-in, or you can click here to register.
(Registration is free)

All songs owned by corresponding publishing company. If you make copies of any song on this website, be sure to report your usage to CCLI.
Artist: Zao
Album: Liberate to Ex Infernis(Save Yourself From Hell)
Song: Desire the End
Tabbed by Everett Wade.(send any corrections to: flamehead20@juno.com)
Drop C tuning(CGCFAD).
-This tab is my own work-
I'm not gonna put how many times you play every riff, just listen to the cd.
These are all the riffs:

  Guitar 1:
D|-------------------------------------|
A|-------------------------------------|
F|-------------------------------------|
C|--0--2-3--5--3--2--3--3--3--2--2--0--|
G|-------------------------------------|
C|-------------------------------------|

  Guitar 2:
D|-----------------------------------------------|
A|-----------------------------------------------|
F|--7*-8*-7*-5*-7*-8*-7*-5*-7*-8*-7*-5*-7*-8*-7b-|
C|-----------------------------------------------|
G|-----------------------------------------------|
C|-----------------------------------------------|



Right before he starts singing without the other guitar 1x.

D|---------------------------------------|
A|---------------------------------------|
F|-----------------------2---------------|
C|------2-3--5--3--2--3--3-3-2-2---------|
G|---------------------------------------|
C|---0------------------------------0----|

	First and Second chorus.

D|-----------------------------------------|
A|-----------------------------------------|
F|------2--3--6--3--2--3--2--2-------------|
C|---0-----------------------3--2----------|
G|---0----------------------------3--------|
C|---0-------------------------------0-----|

Clean riff:

D|------------------------------------------------------------------|
A|------------------------------------------------------------------|
F|-12-12-12-12-12-12-12-12-10-10-10-10-9-9-9-9-7-7-7-7-7-7-7-7-7-7--|
C|------------------------------------------------------------------|
G|-10-10-10-10-10-10-10-10-8--8--8--8--7-7-7-7-5-5-5-5-5-5-5-5-5-5--|
C|------------------------------------------------------------------|


D|----------------------------------------------------------------------------|
A|----------------------------------------------------------------------------|
F|-12-12-12-12-12-12-12-12-10-10-10-10-9-9-9-9-/14-14-14-14-14-14-14-14-14-14-|
C|----------------------------------------------------------------------------|
G|-10-10-10-10-10-10-10-10-8--8--8--8--7-7-7-7-/12-12-12-12-12-12-12-12-12-12-|
C|----------------------------------------------------------------------------|

  Bass riff played during clean riff:
F|--------------------------------------------|
C|--------------------------------------------|
G|--------------------------------------------|
C|-0-0-0-0-0-0-0-0-0-/5-5-5-5-5-5-3-3-3-2-2-2-|
 Something like that

  Guitar 1:(bass riff keeps on playing)
D|--------------------|
A|--------------------|
F|--------------------|
C|-10-8-8--7-5-7-8-7--|
G|--------------------|
C|--------------------|

  Guitar 2:
D|-----------------------------------------------|
A|-----------------------------------------------|
F|--7*-8*-7*-5*-7*-8*-7*-5*-7*-8*-7*-5*-7*-8*-7b-|
C|-----------------------------------------------|
G|-----------------------------------------------|
C|-----------------------------------------------|

  
D|---------------------------------------|
A|---------------------------------------|
F|-----------------------2---------------|
C|------2-3--5--3--2--3--3-3-2-2---------|
G|---------------------------------------|
C|---0------------------------------0----|

  End riff:
D|-------------------------------------|
A|-------------------------------------|
F|------------------------5^-----------|
C|-------------------------------------|
G|-------------------------------------|
C|-0-1-0-0-1-0-0-0-0-0-0---------------|

Comments about this tab

No comments/corrections found. Add your own

Complimentary Christian Ringtones
Dadamobile and CGR have teamed up to bring your favorite Christian artists right to your phone. Sign up today and get 10 complementary ringtones!
Tab Country
Did you know CGR has a sister site w/ country guitar tabs? Well we do! Its called Tab Country. It has a great archive with a lot of country tabs.
Rockin Tabs
Are you looking for a site that has rock guitar tabs? Then Rockintabs.com is the place for you. It is a budding site with many rock guitar tabs. Submit your tab today.
Tab Gallery
Tab Gallery has a compilation of christian, rock, and country tabs all in one place. Come visit us.