Guitar Tabs
song title    band name

Join Us Today!

Don't strum alone...
be a part of the largest online Christian music community. Browse thousands of guitar tabs and chat w/ musicians like yourself.


It's Free!

Zao - Ravage Ritual

This tab has been rated a 4.00 out of 5 for accuracy. (1 vote)Sorry, but you must be logged in to rate this tab.
Click here to log-in, or you can click here to register.
(Registration is free)

All songs owned by corresponding publishing company. If you make copies of any song on this website, be sure to report your usage to CCLI.
Zao - Where Blood And Fire Bring Rest - Ravage Ritual
Tabbed by Everett Wade(flamehead20@juno.com)

There are two guitars in this song,
but some of the time the second guitar
isn't playing. I'm not going to put how
many times you play each section, so
just listen to the CD to get the timing.

	Guitar 1:

E|-----------------------------------------------------|
B|-----------------------------------------------------|
G|-----------------------------------------------------|
D|---10--8--8--7--5--7--8--7--5--7--8--7--5--7--8--7---|
A|-----------------------------------------------------|
D|-----------------------------------------------------|

	At the same time as the above Guitar 2 plays:

E|-------------------------------|
B|-------------------------------|
G|-------------------------------|
D|--0*-0*-0*-0*--1--1*-1*-1*--0--|
A|--0*-0*-0*-0*--1--1*-1*-1*--0--|
D|--0*-0*-0*-0*--1--1*-1*-1*--0--|


	Guitar 1:

E|----------------------|
B|----------------------|
G|-----15---8--8--7-----|
D|--0--15---8--8--7--0--|
A|--0--13---6--6--5--0--|
D|--0----------------0--|

	Guitar 1: (playing with guitar 2)

E|---------------------------|
B|---------------------------|
G|---------------------------|
D|--0--7--6--2--5--2--3--0---|
A|---------------------------|
D|---------------------------|

Then do this once:

E|---------------------------|
B|---------------------------|
G|-----7--6--2--5--2--3--0---|
D|-0-------------------------|
A|---------------------------|
D|---------------------------|

Then back to this:

E|---------------------------|
B|---------------------------|
G|---------------------------|
D|--0--7--6--2--5--2--3--0---|
A|---------------------------|
D|---------------------------|


	At the same time as the above Guitar 2 plays this a few times:

E|--------------------------------|
B|--------------------------------|
G|--------------------------------|
D|--0*---0*-0*-0*---0*---0*-0*-0*-|
A|--0*---0*-0*-0*---0*---0*-0*-0*-|
D|--0*---0*-0*-0*---0*---0*-0*-0*-|

	Then this once:

E|----------------------|
B|----------------------|
G|----------------------|
D|---0*-0*-0*-0*---10^--|
A|---0*-0*-0*-0*--------|
D|---0*-0*-0*-0*--------|

	Guitar 1 plays this a few times:

E|------------------------------------|
B|------------------------------------|
G|------------------3-------3---------|
D|--0*-0*-7---0*-0*-3---3-2-3-0-3-2---|
A|--0*-0*-7---0*-0*-1---3-2-1-0-3-2---|
D|--0*-0*-7---0*-0*-----3-2---0-3-2---|

	Then this:

E|----------------------|
B|----------------------|
G|-----15---8--8--7-----|
D|--0--15---8--8--7--0--|
A|--0--13---6--6--5--0--|
D|--0----------------0--|

	Then:

E|-------------------------------------------------------|
B|-------------------------------------------------------|
G|-----15---8--8--8--8--8--------------------------------|
D|--0--15---8--8--8--8--8----7-7-7--7-7-7---7-7-7--7-7-7-|
A|--0--13---6--6--6--6--6--------------------------------|
D|--0----------------------------------------------------|


	Guitar 1: (really fast)

E|----------------------------------|
B|----------------------------------|
G|----------------------------------|
D|-12--10--8--7--5--7--8--7--10--8--|
A|----------------------------------|
D|----------------------------------|

	At the same time as the above Guitar 2 plays:

E|--------------------------------|
B|--------------------------------|
G|--------------------------------|
D|--0*---0*-0*-0*---0*---0*-0*-0*-|
A|--0*---0*-0*-0*---0*---0*-0*-0*-|
D|--0*---0*-0*-0*---0*---0*-0*-0*-|

That's it. I hope I'm right. E-mail me if you find any errors.

Comments about this tab

xidis777 - 2007-04-18

Dude!! your making this way harder than it has to be!!
d--0-7-6---5-h6p--4-h5p--|
a--------7------6------5-|
D------------------------|

the cool little rift is a hammer on, try it! i think you will find that it is much easier!


Add a comment/correction

Complimentary Christian Ringtones
Dadamobile and CGR have teamed up to bring your favorite Christian artists right to your phone. Sign up today and get 10 complementary ringtones!
Tab Country
Did you know CGR has a sister site w/ country guitar tabs? Well we do! Its called Tab Country. It has a great archive with a lot of country tabs.
Rockin Tabs
Are you looking for a site that has rock guitar tabs? Then Rockintabs.com is the place for you. It is a budding site with many rock guitar tabs. Submit your tab today.
Tab Gallery
Tab Gallery has a compilation of christian, rock, and country tabs all in one place. Come visit us.