Guitar Tabs
song title    band name

Join Us Today!

Don't strum alone...
be a part of the largest online Christian music community. Browse thousands of guitar tabs and chat w/ musicians like yourself.


It's Free!

Zao - Times of Separation

This tab has not yet been rated for accuracy.Sorry, but you must be logged in to rate this tab.
Click here to log-in, or you can click here to register.
(Registration is free)

All songs owned by corresponding publishing company. If you make copies of any song on this website, be sure to report your usage to CCLI.
Times Of Separation
Zao

this is the only thing I know... i loved the part in "times of separation"
off the first full length when the guitar has that harmonics solo, so I
figured out how ot play it... heres that little solo thinger...

(play all of these notes as harmonics)
---------------5-----------------------------------5----------
-7----------5----------7---------------7--------5-------------
----5--------------------5----------------5--7----------------
--------------------------------------------------------------
--------------------------------------------------------------
--------------------------------------------------------------


------------12----------------------5----------------
-7--------------------7---------5--------------------
----5--7-----------------5--7------------------------
-----------------------------------------------------
-----------------------------------------------------
-----------------------------------------------------

hope that helps!

-darron

Comments about this tab

No comments/corrections found. Add your own

Complimentary Christian Ringtones
Dadamobile and CGR have teamed up to bring your favorite Christian artists right to your phone. Sign up today and get 10 complementary ringtones!
Tab Country
Did you know CGR has a sister site w/ country guitar tabs? Well we do! Its called Tab Country. It has a great archive with a lot of country tabs.
Rockin Tabs
Are you looking for a site that has rock guitar tabs? Then Rockintabs.com is the place for you. It is a budding site with many rock guitar tabs. Submit your tab today.
Tab Gallery
Tab Gallery has a compilation of christian, rock, and country tabs all in one place. Come visit us.