Guitar Tabs
song title    band name

Join Us Today!

Don't strum alone...
be a part of the largest online Christian music community. Browse thousands of guitar tabs and chat w/ musicians like yourself.


It's Free!

Zao - Resistance

This tab has been rated a 4.67 out of 5 for accuracy. (3 votes)Sorry, but you must be logged in to rate this tab.
Click here to log-in, or you can click here to register.
(Registration is free)

All songs owned by corresponding publishing company. If you make copies of any song on this website, be sure to report your usage to CCLI.
Zao- resistance
All else failed 
Tabbed by peter klein
Dropped D	
bold= muted


-----------------------------------------------
-----------------------------------------------
------------4----------------------------------
--2-2-2-3-2-4-3-0-2-0-2-0-6-0-3----------------
--2-2-2-3-2-2-3-0-2-0-2-0-6-0-3----------------        4x
--2-2-2-3-2---3-0-2-0-2-0-6-0-3----------------


-------------------------------------------------------------
-------------------------------------------------------------
------------4------------------------------------------------
--2-2-2-2-3-4-3-3-3----3----3---2----------------------------
--2-2-2-2-3-2-3-3-3----3----3---2----------------------------
--2-2-2-2-3---3-3-3----3----3---2----------------------------


--------------------------------------------------------------
--------------------------------------------------------------
--------------------------------------------------------------
--7-7-8-7-7-8-0-0-0-0-0---------------------------------------
--7-7-8-7-7-8-0-0-0-0-0---------------------------------------
--7-7-8-7-7-8-0-0-0-0-0---------------------------------------

---------------------------------------------------------------
---------------------------------------------------------------
---------------------------------------------------------------
--7-7-8-7-8-8-10-12--------------------------------------------
--7-7-8-7-8-8-10-12--------------------------------------------
--7-7-8-7-8-8-10-12--------------------------------------------

------------------------------------------------------------
------------------------------------------------------------
------------------------------------------------------------
--12-13-13-12-13-12-0-10-13---------------------------------        
--12-13-13-12-13-12-0-10-13---------------------------------     2x
--12-13-13-12-13-12-0-10-13---------------------------------

------------------------------------------------------------
------------------------------------------------------------
------------------------------------------------------------
--10-9-10-9-10-9-10-9-0-0-0-0-0-----------------------------
--10-9-10-9-10-9-10-9-0-0-0-0-0-----------------------------     4x
--10-9-10-9-10-9-10-9-0-0-0-0-0-----------------------------

I know this part bellow is wrong but it works out 
 
---------------------------------------------------------------
---------------------------------------------------------------
----------4------------4---------------------------------------
--2-2-3-2-4----2-2-3-2-4---------------------------------------
--2-2-3-2-2----2-2-3-2-2---------------------------------------
--2-2-3-2------2-2-3-2-----------------------------------------


---------------------------------------------------------------
---------------------------------------------------------------
----4-4-4-4-4-4-4----------------------------------------------
--3-4-4-4-4-4-4-4------3--3--3---3-----------------------------
--3-2-2-2-2-2-2-2------3--3--3---3-----------------------------   4x
--3--------------------3--3--3---3-----------------------------


------------------------
------------------------
------------------------
--3-3-3-3---2-2-2-2-----
--3-3-3-3---2-2-2-2-----   7x
--3-3-3-3---2-2-2-2-----                      all of this   2x

-------------------------
-------------------------
-------------------------
--3-3-3------------------
--3-3-3------------------
--3-3-3------------------


--------------------------------------------------------------
--------------------------------------------------------------
--------------------------------------------------------------
--7-7-8-7-7-8-0-0-0-0-0---------------------------------------
--7-7-8-7-7-8-0-0-0-0-0---------------------------------------
--7-7-8-7-7-8-0-0-0-0-0---------------------------------------

---------------------------------------------------------------
---------------------------------------------------------------
---------------------------------------------------------------
--7-7-8-7-8-8-10-12--------------------------------------------
--7-7-8-7-8-8-10-12--------------------------------------------
--7-7-8-7-8-8-10-12--------------------------------------------

------------------------------------------------------------
------------------------------------------------------------
------------------------------------------------------------
--12-13-13-12-13-12-0-10-13---------------------------------        
--12-13-13-12-13-12-0-10-13---------------------------------      2x
--12-13-13-12-13-12-0-10-13---------------------------------


------------------------------------------------------------
------------------------------------------------------------
------------------------------------------------------------
--10-9-10-9-10-9-10-9-0-0-0-0-0-----------------------------
--10-9-10-9-10-9-10-9-0-0-0-0-0-----------------------------     4x
--10-9-10-9-10-9-10-9-0-0-0-0-0-----------------------------


----------------------------------------------------------
----------------------------------------------------------
----------------------------------------------------------
--2-2-2-2-2-2-2-2-2-2-2-----------------------------------
--2-2-2-2-2-2-2-2-2-2-2-----------------------------------    5x
--2-2-2-2-2-2-2-2-2-2-2-----------------------------------




i looked forever for this tab and could not find it anywhere so i made
it myself. it is my first tab and i could not figure out a couple parts
so enjoy the first riff because that riff is the reason i made this tab

Comments about this tab

Jesusfreeek12 - 2007-04-22

I beleive that it's tuned to drop C


Add a comment/correction

Complimentary Christian Ringtones
Dadamobile and CGR have teamed up to bring your favorite Christian artists right to your phone. Sign up today and get 10 complementary ringtones!
Tab Country
Did you know CGR has a sister site w/ country guitar tabs? Well we do! Its called Tab Country. It has a great archive with a lot of country tabs.
Rockin Tabs
Are you looking for a site that has rock guitar tabs? Then Rockintabs.com is the place for you. It is a budding site with many rock guitar tabs. Submit your tab today.
Tab Gallery
Tab Gallery has a compilation of christian, rock, and country tabs all in one place. Come visit us.