Guitar Tabs
song title    band name

Join Us Today!

Don't strum alone...
be a part of the largest online Christian music community. Browse thousands of guitar tabs and chat w/ musicians like yourself.


It's Free!

Chevelle - Comfortable Liar

This tab has been rated a 1.75 out of 5 for accuracy. (4 votes)Sorry, but you must be logged in to rate this tab.
Click here to log-in, or you can click here to register.
(Registration is free)

All songs owned by corresponding publishing company. If you make copies of any song on this website, be sure to report your usage to CCLI.
Comfortable Liar
Chevelle

Tabbed By: Matt Henigin

Tuning- Dd Ad Dd Gb Bb Eb

Listen to the CD for the correct strumming patterns

. = palm mute

Riff #1
------------------------------------------
------------------------------------------
------------------------------------------
-4---0---4---0----------------------------
-4---0---4---0----------------------------
-4---0---4---0----------------------------

Riff #2
------------------------------------------
------------------------------------------
------------------------------------------
-4---0---4---0----------------------------
-4---0---4---0----------------------------
-4---0---4---0----------------------------
 .   .   .   .

Riff #3
----------
----------
----------
-0---4----
-0---4----
-0---4----

Riff #4
--------------
--------------
--------------
-0-0---0------
-0-0---0------
-0-0---0------
 . .   

Riff #5
--------------
--------------
--------------
-4-4---4------
-4-4---4------
-4-4---4------
 . .   

Riff #6
-------------
-------------
-------------
-0-0---0-----
-0-0---0-----
-0-0---0-----
 . .    

Riff #7
-------------
-------------
-------------
-0-0---4-----
-0-0---4-----
-0-0---4-----
 . .    

Riff Order and play time:

Riff #1 (8x)
Riff #2 (12x)
Riff #3 (2x)
Riff #2 (12x)
Riff #4 (8x)
Riff #5 (8x)
Riff #4 (8x)
Riff #5 (8x)
Riff #3 (4x)
Riff #1 (8x)
Riff #6 (32x)
Riff #7 (1x)

Comments about this tab

ariaman - 2005-01-03

i think it sounds better when you play the verse like this:

Gb-----7--------
Db--4--7--4--0--
Ab--4--5--4--0--
Db--4-----4--0--


ElectricSaiyan - 2007-02-03

I think it's this after watching Pete play it (it sounds better too)
D--6--0--4--2--
A--6--7--4--2--
E--4--0--4--0--

I'm not sure which strings to play on the second chord, but it sounds fine to me.


Add a comment/correction

Complimentary Christian Ringtones
Dadamobile and CGR have teamed up to bring your favorite Christian artists right to your phone. Sign up today and get 10 complementary ringtones!
Tab Country
Did you know CGR has a sister site w/ country guitar tabs? Well we do! Its called Tab Country. It has a great archive with a lot of country tabs.
Rockin Tabs
Are you looking for a site that has rock guitar tabs? Then Rockintabs.com is the place for you. It is a budding site with many rock guitar tabs. Submit your tab today.
Tab Gallery
Tab Gallery has a compilation of christian, rock, and country tabs all in one place. Come visit us.