Guitar Tabs
song title    band name

Join Us Today!

Don't strum alone...
be a part of the largest online Christian music community. Browse thousands of guitar tabs and chat w/ musicians like yourself.


It's Free!

Dogwood - Good Times, The

This tab has been rated a 5.00 out of 5 for accuracy. (2 votes)Sorry, but you must be logged in to rate this tab.
Click here to log-in, or you can click here to register.
(Registration is free)

All songs owned by corresponding publishing company. If you make copies of any song on this website, be sure to report your usage to CCLI.
Song:The Good Times
CD: Building A Better Me
Tabbed by:Cody Perrin
(^means you strum that chord up, \means strum the chord down, this song,
the beat is in a basic down up, down up, down up strumming pattern, if
you don't want to do it like that, it will still sound fine, but it is a
lot easier to do it the up down way)



F*=F HIGH
Intro:
   \^\  ^  \  ^      \^\  ^  \  ^      \^\  ^  \  ^      \^\  ^  \  ^
e[----------------------------------------------------------------------
B[----------------------------------------------------------------------
G[------10 10 10----------10 10 10----------10 10 10----------10 10 10--
D[-777--10 10 10-----777--10 10 10-----777--10 10 10-----777--10 10 10--
A[-777--8  8  8 -----777--8  8  8 -----777--8  8  8 -----777--8  8  8 --
E[-555---------------555---------------555---------------555------------
   A    F*           A    F*           A    F*           A    F*
   

   \\^^\^  ^\^\^\
E[-----------------------------------------------
B[-----------------------------------------------
G[-555555/7777777-----------------10 10 10-------
D[-555555/7777777------------777--10 10 10---7---
A[-333333/5555555------------777--8  8  8 ---7---
E[---------------------------555-------------5---
   C      D                  A    F*         A
Everything would change......

Verse:


   \^\  ^  \  ^      \^\  ^  \  ^      \^\  ^  \  ^      \^\  ^  \  ^
e[----------------------------------------------------------------------
B[----------------------------------------------------------------------
G[------10 10 10----------10 10 10----------10 10 10----------10 10 10--
D[-777--10 10 10-----777--10 10 10-----777--10 10 10-----777--10 10 10--
A[-777--8  8  8 -----777--8  8  8 -----777--8  8  8 -----777--8  8  8 --
E[-555---------------555---------------555---------------555------------
   A    F*           A    F*           A    F*           A    F*
   
I was lost in my own world
   \\^^\^  ^\^\^\            
E[---------------------------
B[---------------------------
G[-555555/7777777------------
D[-555555/7777777------------
A[-333333/5555555------------
E[---------------------------
   C      D                  


E[----------------------------------
B[----------------------------------
G[------9/10 10 10------------------
D[-777--9/10 10 10 10 10 10 10--5555
A[-777--7/8  8  8  10 10 10 10--5555
E[-555-------------8  8  8  8 --3333

E[-------------------------------------
B[-------------------------------------
G[------9/10 10 10---------------------
D[-777--9/10 10 10 10 10 10 10--5--5---
A[-777--7/8  8  8  10 10 10 10--5--5---
E[-555-------------8  8  8  8 --3--3---both of those together x3

Chorus
E[---------------
B[---------------
G[-----10 10 10--x8
D[777--10 10 10--
A[777--8  8  8 --
E[555------------
Right after Bring me to the GOOD TIMES

Verse 2:
Same as verse one except pm
E[----------
B[----------
G[-----10xx-
D[xxx7-10xx-x4
A[xxx7-8-xx-
E[xxx5------

E[----------------
B[----------------
G[555555/7777777--
D[555555/7777777--
A[333333/5555555--
E[----------------

E[---------------
B[---------------
G[-----10 10 10--x4
D[777--10 10 10--
A[777--8  8  8 --
E[555------------

E[----------------------------------
B[----------------------------------
G[------9/10 10 10------------------
D[-777--9/10 10 10 10 10 10 10--5555
A[-777--7/8  8  8  10 10 10 10--5555
E[-555-------------8  8  8  8 --3333

E[-------------------------------------
B[-------------------------------------
G[------9/10 10 10---------------------
D[-777--9/10 10 10 10 10 10 10--5--5---
A[-777--7/8  8  8  10 10 10 10--5--5---
E[-555-------------8  8  8  8 --3--3---both of those together x3

Chorus:
Play over and over again, until the song fades out
E[---------------
B[---------------
G[-----10 10 10--x4
D[777--10 10 10--
A[777--8  8  8 --
E[555------------

This is absolutly correct, if you have problems reading it, email me at
Drawinblcklines7@netscape.net

Comments about this tab

No comments/corrections found. Add your own

Complimentary Christian Ringtones
Dadamobile and CGR have teamed up to bring your favorite Christian artists right to your phone. Sign up today and get 10 complementary ringtones!
Tab Country
Did you know CGR has a sister site w/ country guitar tabs? Well we do! Its called Tab Country. It has a great archive with a lot of country tabs.
Rockin Tabs
Are you looking for a site that has rock guitar tabs? Then Rockintabs.com is the place for you. It is a budding site with many rock guitar tabs. Submit your tab today.
Tab Gallery
Tab Gallery has a compilation of christian, rock, and country tabs all in one place. Come visit us.