Guitar Tabs
song title    band name

Join Us Today!

Don't strum alone...
be a part of the largest online Christian music community. Browse thousands of guitar tabs and chat w/ musicians like yourself.


It's Free!

Chevelle - Wonder What's Next

This tab has been rated a 0.40 out of 5 for accuracy. (5 votes)Sorry, but you must be logged in to rate this tab.
Click here to log-in, or you can click here to register.
(Registration is free)

All songs owned by corresponding publishing company. If you make copies of any song on this website, be sure to report your usage to CCLI.
Wonder What's Next
Chevelle

Tabbed By: Matt Henigin

Tuning- Db Ab Db Gb Bb Eb

Listen to the CD for the correct strumming patterns

. = palm mute
() = play only the last time the riff is played

Riff #1
-----------------------------------
-----------------------------------
-----------------------------------
-0-3-4---4-3-0-3-0-3-4---4-3-0-2---
-0-3-4---4-3-0-3-0-3-4---4-3-0-2---
-0-3-4---4-3-0-3-0-3-4---4-3-0-2---
 . . .   . . . . . . .   . . . .

Riff #2
-----------------------------------
-----------------------------------
-----------------------------------
-0-3-4-0-4-3-0-3-0-3-4-0-4-3-0-2---
-0-3-4-0-4-3-0-3-0-3-4-0-4-3-0-2---
-0-3-4-0-4-3-0-3-0-3-4-0-4-3-0-2---

Riff #3
-------------------------------------
-------------------------------------
-------------------------------------
-2-2-2-2---2-1-2-1---(0)-------------
-2-2-2-2---2-1-2-1---(0)-------------
-2-2-2-2---2-1-2-1---(0)-------------
 . . . .

Riff #4
-------
-------
-------
-0-0---
-0-0---
-0-0---

Riff #5
-------------------------------------
-------------------------------------
-------------------------------------
-2-2-2-2---2-1-2-1---(0)-------------
-2-2-2-2---2-1-2-1---(0)-------------
-2-2-2-2---2-1-2-1---(0)-------------

Riff #6
------------------------------------
------------------------------------
------------------------------------
-2-2-2-2---2-1-2-1---0-0------------
-2-2-2-2---2-1-2-1---0-0------------
-2-2-2-2---2-1-2-1---0-0------------

Riff Order and play time:

Riff #1 (4x)
Riff #2 (8x)
Riff #3 (8x)
Riff #2 (4x)
Riff #3 (8x)
Riff #4 (1x)
Riff #1 (8x)
Riff #5 (8x)
Riff #2 (8x)
Riff #3 (8x)
Riff #5 (16x)
Riff #6 (1x)

Comments about this tab

12gauge - 2005-06-02

This is way off. I gave you a 2.00 but this is way off. Its Drop B tuning, not
C#


Add a comment/correction

Complimentary Christian Ringtones
Dadamobile and CGR have teamed up to bring your favorite Christian artists right to your phone. Sign up today and get 10 complementary ringtones!
Tab Country
Did you know CGR has a sister site w/ country guitar tabs? Well we do! Its called Tab Country. It has a great archive with a lot of country tabs.
Rockin Tabs
Are you looking for a site that has rock guitar tabs? Then Rockintabs.com is the place for you. It is a budding site with many rock guitar tabs. Submit your tab today.
Tab Gallery
Tab Gallery has a compilation of christian, rock, and country tabs all in one place. Come visit us.