Guitar Tabs
song title    band name

Join Us Today!

Don't strum alone...
be a part of the largest online Christian music community. Browse thousands of guitar tabs and chat w/ musicians like yourself.


It's Free!

American Made - Radio

This tab has not yet been rated for accuracy.Sorry, but you must be logged in to rate this tab.
Click here to log-in, or you can click here to register.
(Registration is free)

All songs owned by corresponding publishing company. If you make copies of any song on this website, be sure to report your usage to CCLI.
Song: Radio
Band: American Made
Album: Red
Written By: American Made (hey, its what the cd  jacket says)
Copyright 2002 RCM Records
Tabbed by Josiah Pagoota (guitarvibe55@yahoo.com)

I omit all unplayed strings

Riff 1:

G-4-4-4-4-------------------------
D--4-4-4-4-2-2-2-2-6-6-6-6-2-2-2-2-
A--2-2-2-2-2-2-2-2-6-6-6-6-2-2-2-2-    
E----------0-0-0-0-4-4-4-4-0-0-0-0- 

Riff 2: 

G-4-4-4-4-------------------------
D--4-4-4-4-2-2-2-2-6-6-4-4-2-2-2-2-
A--2-2-2-2-2-2-2-2-6-6-4-4-2-2-2-2-    
E----------0-0-0-0-4-4-2-2-0-0-0-0-

Intro: Riff 1 then Riff 2

Chorus 1: Riff 1 2X

Pre-Verse: Bass plays 3 measures by itself; on count 4 of the 4th measure,
the guitar comes in w/this (slide rather quick):

G4/6-4------
D-4/6-4------
A-2/4-2------

Verse:  Do this all twice

G--------------------4---4---4-----------------------4---4---3h4---
D----4---4---4---4-2---2---1---2-1---4---4---4---4-2---2---1-------
A--2---2---------------------------2---2---------------------------
E----------0---0---------------------------0---0-------------------

Chorus 2: Riff 2 then Riff 1 3X

Bridge: (after 2nd verse)

G--4-4------------4-4------------
D--4-4------------4-4----2-2-4-4-
A--2-2------------2-2----2-2-4-4-
E------------------------0-0-2-2-

Musical Break:

G--4-4-----------------
D--4-4-1-2-2-2---------
A--2-2-----2-2-6h7p64--
E----------0-0---------

Then rhythm guitar plays:

D--6-6-4-4-2-2-2-2--
A--6-6-4-4-2-2-2-2--
E--4-4-2-2-0-0-0-0-

while lead guitar plays:

D--1-1-2-2-4-4-4-4


Then play the entire musical break wo/pauses over chorus lyrics 2X '


Thats it. Everything is 100% perfect. This is my favorite song on the album.
I hope you enjoy it. Email me w/?s and comments at guitarvibe55@yahoo.com
Later!

Comments about this tab

No comments/corrections found. Add your own

Complimentary Christian Ringtones
Dadamobile and CGR have teamed up to bring your favorite Christian artists right to your phone. Sign up today and get 10 complementary ringtones!
Tab Country
Did you know CGR has a sister site w/ country guitar tabs? Well we do! Its called Tab Country. It has a great archive with a lot of country tabs.
Rockin Tabs
Are you looking for a site that has rock guitar tabs? Then Rockintabs.com is the place for you. It is a budding site with many rock guitar tabs. Submit your tab today.
Tab Gallery
Tab Gallery has a compilation of christian, rock, and country tabs all in one place. Come visit us.