Guitar Tabs
song title    band name

Join Us Today!

Don't strum alone...
be a part of the largest online Christian music community. Browse thousands of guitar tabs and chat w/ musicians like yourself.


It's Free!

American Made - Days Left Behind

This tab has not yet been rated for accuracy.Sorry, but you must be logged in to rate this tab.
Click here to log-in, or you can click here to register.
(Registration is free)

All songs owned by corresponding publishing company. If you make copies of any song on this website, be sure to report your usage to CCLI.
Song: Days Left Behind
Band: American Made
Album: Red
Written by: American Made     
Copyright 2002 RCM Records
Tabbed by: Josiah Pagoota (guitarvibe55@yahoo.com)

I omit all unplayed strings. This tab is very accurate.

Intro Part 1:

G--66666666666666666666666666666666
D--66666666666666666666666666666666
A--44444444444444440000000000000000 PLAY 4X

Intro Part 2:

G--666666669-8-------------9-8-----
D--666666669-8-9---777777779-8-9---
A--444444447-6-9---777777777-6-9---
E--------------7---55555555----7--- PLAY 2X

Intro Part 3: Play this lead over intro Part 2

G--6666666666668-9-666666666-4-4-4- PLAY 2X

Chorus: Palm-mute 

G--6666666699999999----------------6666666699999999----------------
D--6666666699999999777777774444444466666666999999997777777744444444
A--4444444477777777777777774444444444444444777777777777777744444444
E------------------5555555522222222----------------5555555522222222

Verses: Play Intro Part 2 4X

Bridge Part 1 (2:06): Strum chord once, wait 2 measures, strum next chord

G--6--6--9--6--9--6--9--6--
D--6--6--9--6--9--6--9--6--
A--4--4--7--4--7--4--7--4

Bridge Part 2 (2:27): PLAY 6X Total

G--6666666666666666------------------------------------------------
D--666666666666666677777777777777772222222222222222xx6-xx6-xx6-xx6-
A--444444444444444477777777777777772222222222222222xx6-xx6-xx6-xx6-
E------------------55555555555555550000000000000000xx4-xx4-xx4-xx4-

Ending:

G--66------99--------------99------66------99--------------99---------
D--66------99--99--77------99--99--66------99--99--77------99-9-1011-
A--44------77--99--77------77-99--44------77--99--77------77-9-1011-
E--------------77--55----------77--------------77--55----------7-8-9--

This is a cool song. Fairly simple. If anyone knows where to find American
Made lyrics email me.   My email is guitarvibe55@yahoo.com

Comments about this tab

No comments/corrections found. Add your own

Complimentary Christian Ringtones
Dadamobile and CGR have teamed up to bring your favorite Christian artists right to your phone. Sign up today and get 10 complementary ringtones!
Tab Country
Did you know CGR has a sister site w/ country guitar tabs? Well we do! Its called Tab Country. It has a great archive with a lot of country tabs.
Rockin Tabs
Are you looking for a site that has rock guitar tabs? Then Rockintabs.com is the place for you. It is a budding site with many rock guitar tabs. Submit your tab today.
Tab Gallery
Tab Gallery has a compilation of christian, rock, and country tabs all in one place. Come visit us.