Guitar Tabs
song title    band name

Join Us Today!

Don't strum alone...
be a part of the largest online Christian music community. Browse thousands of guitar tabs and chat w/ musicians like yourself.


It's Free!

This tab has been rated a 4.12 out of 5 for accuracy. (17 votes)Sorry, but you must be logged in to rate this tab.
Click here to log-in, or you can click here to register.
(Registration is free)

All songs owned by corresponding publishing company. If you make copies of any song on this website, be sure to report your usage to CCLI.
I Give You My Heart
Darlene Zschech

Intro:  C D Bm C (x2)

Verse 1
G     D/F#   Em
C     G      D/F#
Em    D/F#   G
F     C

VERSE 2
G     D/F#   Em
C     G      D/F#
Em    D/F#   G
F     C

Chorus
G     D/F#   Am7
C     G      D/F#
Am7   C      G

Comments about this tab

juggernaut2437 - 2005-02-26

Intro:

G|-9----9-11-12-11-12-11-----------------9-11-12
D|-----------------------11-7----9-11-12--------


n_adamczyk - 2005-02-26

If you have the new CD with Delirious it goes
G304030
D204030
Em024030
C034030
it sound really cool picking through the whole song


juggernaut2437 - 2005-02-28

Intro:

just to clear things up, cuz im also having trouble when to
press the right notes
G|-9----9-11-12---11-12-11-----------------------9-11-12
D|-------------------------11-7----9-11-12--------------


godsixstringer - 2006-05-10

Try the intro/solo this way, it sounds great with a little distortion and alot of reverb(Hall):

e--------------------------------10-10----------------------------------------
B-5--5-7-8-7-8-7----------------8--8---\5--5-7-8-7-8-7------------------------
G-----------------7------7--7-9------------------------7--------------12-14b--
D--------------------5h7---------------------------------5-7/12-12-14---------
A-----------------------------------------------------------------------------
E-----------------------------------------------------------------------------

e-----------------------------------------------------------------------------
B-----------------------------------------------------------------------------
G-12-14b-12-14b-12------------------------------------------------------------
D-----------------------------------------------------------------------------
A-----------------------------------------------------------------------------
E-----------------------------------------------------------------------------


godsixstringer - 2006-05-10

Try the intro/solo this way, it sounds great with a little distortion and alot of reverb(Hall):

e--------------------------------10-10----------------------------------
B-5--5-7-8-7-8-7----------------8--8---\5--5-7-8-7-8-7------------------
G-----------------7------7--7-9------------------------7----------------
D--------------------5h7---------------------------------5-7/12-12-14---
A-----------------------------------------------------------------------
E-----------------------------------------------------------------------

e----------------------------------------------------------------------
B----------------------------------------------------------------------
G-12-14b-12-14b-12-14b-12----------------------------------------------
D----------------------------------------------------------------------
A----------------------------------------------------------------------
E----------------------------------------------------------------------
Try this, it's better!!


rockerformymake - 2007-05-31

hey,
how do you play the part which goes
'and i will live, and i will live for You'?


Add a comment/correction

Complimentary Christian Ringtones
Dadamobile and CGR have teamed up to bring your favorite Christian artists right to your phone. Sign up today and get 10 complementary ringtones!
Tab Country
Did you know CGR has a sister site w/ country guitar tabs? Well we do! Its called Tab Country. It has a great archive with a lot of country tabs.
Rockin Tabs
Are you looking for a site that has rock guitar tabs? Then Rockintabs.com is the place for you. It is a budding site with many rock guitar tabs. Submit your tab today.
Tab Gallery
Tab Gallery has a compilation of christian, rock, and country tabs all in one place. Come visit us.