Guitar Tabs
song title    band name

Join Us Today!

Don't strum alone...
be a part of the largest online Christian music community. Browse thousands of guitar tabs and chat w/ musicians like yourself.


It's Free!

12 Stones - Broken

This tab has been rated a 4.46 out of 5 for accuracy. (13 votes)Sorry, but you must be logged in to rate this tab.
Click here to log-in, or you can click here to register.
(Registration is free)

All songs owned by corresponding publishing company. If you make copies of any song on this website, be sure to report your usage to CCLI.
-12 Stones- \\\"Broken\\\"-
( Drop-D Tuning )


-INTRO/CHORUS-
(Guitar 1)
  |--------------------------------------------------
  |--------------------------------------------------
  |--------------------------------------------------
  |-xxxx0-0xxx0-0-8/10-8-8xxx8-8-8/10-10-------------
  |-xxxx0-0xxx0-0-8/10-8-8xxx8-8-8/10-10-------------
  |-xxxx0-0xxx0-0-8/10-8-8xxx8-8-8/10-10-------------X2
(Guitar 2)(00:06)
  
  |----------------------------------------------
  |----------------------------------------------
  |-7-7--7-7-7-7--7/10-10-3-3-3-3-3-3-3/5--------
  |----------------------------------------------
  |-5-5--5-5-5-5--5/8--8--1-1-1-1-1-1-1/3--------
  |----------------------------------------------X1
 (Guitar 3)(Natural Harmonics)
  (00:04)
  |----------------------------------------------
  |----------------------------------------------
  |----------------------------------------------
  |----4-4---------------------------------------
  |----------------------------------------------
  |----------------------------------------------
  (00:09)
  |----------------------------------------------
  |----------------------------------------------
  |----------------------------------------------
  |----4-4-4-4-----------------------------------
  |----------------------------------------------
  |----------------------------------------------


-VERSE- (00:11)
  |------------------------------------------------
  |------------------------------------------------
  |-----2------------------------------------------
  |---3---3---0-3-3-0/3-3---0-3-------3------------
  |-----------------------1-----1/3-3--------------
  |-0----------------------------------------------X6
-CHORUS-
 (Guitar 1)(00:40)
  |--------------------------------------------------
  |--------------------------------------------------
  |--------------------------------------------------
  |-xxxx0-0xxx0-0-8/10-8-8xxx8-8-8/10-10-------------
  |-xxxx0-0xxx0-0-8/10-8-8xxx8-8-8/10-10-------------
  |-xxxx0-0xxx0-0-8/10-8-8xxx8-8-8/10-10-------------X4

  
  (Guitar 2)(00:51)
  |
  |--------------------------------------------------
  |--------------------------------------------------
  |-7-7--7-7-7-7--7/10-10-3-3-3-3-3-3-3/5------------
  |--------------------------------------------------
  |-5-5--5-5-5-5--5/8--8--1-1-1-1-1-1-1/3------------
  |--------------------------------------------------X2

 (Guitar 3)(Natural Harmonics)
  (00:44),(00:54)
  |----------------------------------------------
  |----------------------------------------------
  |----------------------------------------------
  |----4-4---------------------------------------
  |----------------------------------------------
  |----------------------------------------------
 


-VERSE- (01:00)
  |------------------------------------------------
  |------------------------------------------------
  |-----2------------------------------------------
  |---3---3---0-3-3-0/3-3---0-3-------3------------
  |-----------------------1-----1/3-3--------------
  |-0----------------------------------------------X4


-CHORUS-
 (Guitar 1) (01:20)
  |--------------------------------------------------
  |--------------------------------------------------
  |--------------------------------------------------
  |-xxxx0-0xxx0-0-8/10-8-8xxx8-8-8/10-10-------------
  |-xxxx0-0xxx0-0-8/10-8-8xxx8-8-8/10-10-------------
  |-xxxx0-0xxx0-0-8/10-8-8xxx8-8-8/10-10-------------X4

  
  (Guitar 2)(01:31)
  |
  |--------------------------------------------------
  |--------------------------------------------------
  |-7-7--7-7-7-7--7/10-10-3-3-3-3-3-3-3/5------------
  |--------------------------------------------------
  |-5-5--5-5-5-5--5/8--8--1-1-1-1-1-1-1/3------------
  |--------------------------------------------------X2

 (Guitar 3)(Natural Harmonics)
  (01:23)  
  |----------------------------------------------
  |----------------------------------------------
  |----------------------------------------------
  |----4-4---------------------------------------
  |----------------------------------------------
  |----------------------------------------------

  (01:28)
  |----------------------------------------------
  |----------------------------------------------
  |----------------------------------------------
  |----4-4-4-4-----------------------------------
  |----------------------------------------------
  |----------------------------------------------




-After Chorus play this- (01:40)

  |----------------------------------------------------------
  |----------------------------------------------------------
  |-------10-10-10-10-10/12------------10-10-9-9-9-9-7-5-----
  |-0--0-------------------------3--3------------------------
  |-0--0---8--8--8--8--8/12------3--3---8--8-7-7-7-7-5-3-----
  |-0--0-------------------------3--3------------------------X2


-SOLO- (02:00)
  (palm mute)
  |---------------------------------------------------------------------
  |---------------------------------------------------------------------
  |---------------------------------------------------------------------
  |---------------------------------------------------10-10-8-8-7-7-8-8-
  |-----8-8-7-7-8-8-10-10-8-8-7-7-5-5-----8-8-7-7-8-8-------------------
  |-0-0-------------------------------8-8-------------------------------
  (palm mute)  
  |---------------------------------------------------------------------
  |---------------------------------------------------------------------
  |---------------------------------------------------------------------
  |---------------------------------------------------10-10-8-8-7-7-8-8-
  |-----8-8-7-7-8-8-10-10-8-8-7-7-5-5-----8-8-7-7-8-8-------------------
  |-0-0-------------------------------8-8-------------------------------

  |---------------------------------------------------------------------
  |---------------------------------------------------------------------
  |---------------------------------------------------------------------
  |---------------------------------------------------10-10-8-8-7-7-8-8-
  |-----8-8-7-7-8-8-10-10-8-8-7-7-5-5-----8-8-7-7-8-8-------------------
  |-0-0-------------------------------8-8-------------------------------

  |--------------------------------------------------------------------------
  |--------------------------------------------------------------------------
  |--------------------------------------------------------------------------
  |-----------------------------------------------10-10-10-10-10b-10b-10b-10b  
  |----8-8-7-7-8-8-10-10-8-8-7-7-5-5---8-8-7-7-8-8---------------------------
  |-0-0-----------------------------8-8--------------------------------------


-Chorus-

(Guitar 1)(02:19)
  |--------------------------------------------------
  |--------------------------------------------------
  |--------------------------------------------------
  |-xxxx0-0xxx0-0-8/10-8-8xxx8-8-8/10-10-------------
  |-xxxx0-0xxx0-0-8/10-8-8xxx8-8-8/10-10-------------
  |-xxxx0-0xxx0-0-8/10-8-8xxx8-8-8/10-10-------------X4

  
  (Guitar 2)(02:30)
  |
  |--------------------------------------------------
  |--------------------------------------------------
  |-7-7--7-7-7-7--7/10-10-3-3-3-3-3-3-3/5------------
  |--------------------------------------------------
  |-5-5--5-5-5-5--5/8--8--1-1-1-1-1-1-1/3------------
  |--------------------------------------------------X2

  (Guitar 3)(Natural Harmonics)
  (02:23)
  |----------------------------------------------
  |----------------------------------------------
  |----------------------------------------------
  |------4---------------------------------------
  |----------------------------------------------
  |----------------------------------------------

  (01:28)
  |----------------------------------------------
  |----------------------------------------------
  |----------------------------------------------
  |--------4-4-----------------------------------
  |----------------------------------------------
  |----------------------------------------------


-Outro-

 (Guitar 1)(02:39)
  |--------------------------------------------------
  |--------------------------------------------------
  |--------------------------------------------------
  |-0-0xxx0-0-8/10-8-8xxx8-8-8/10-10-----------------
  |-0-0xxx0-0-8/10-8-8xxx8-8-8/10-10-----------------
  |-0-0xxx0-0-8/10-8-8xxx8-8-8/10-10-----------------X2

  
 (Guitar 2)(02:39)
  |
  |--------------------------------------------------
  |--------------------------------------------------
  |-7-7--7-7-7-7--7/10-10-3-3-3-3-3-3-3/5------------
  |--------------------------------------------------
  |-5-5--5-5-5-5--5/8--8--1-1-1-1-1-1-1/3------------
  |--------------------------------------------------X2




Downloaded from www.taborama.com

================================================================================


Song: Broken
Artist: 12 Stones
Tabbed by: PACTANG (fjrivnghy@abe.midco.net)

DROP D (low to high - DADGBE)
THIS IS BASICALLY IT


INTRO
  |--------------------------------------------------
  |--------------------------------------------------
  |--------------------------------------------------
  |-xxxx0--0xxxx0--0-10-10--8--8xxxx8--8--8/10-10-10-
  |-xxxx0--0xxxx0--0-10-10--8--8xxxx8--8--8/10-10-10-
  |-xxxx0--0xxxx0--0-10-10--8--8xxxx8--8--8/10-10-10-
  
  |----------------------------------------------
  |----------------------------------------------
  |----------------------------------------------
  |-0--0xxxx0--0-10-10--8--8xxxx8--8--8/10-10-10-
  |-0--0xxxx0--0-10-10--8--8xxxx8--8--8/10-10-10-
  |-0--0xxxx0--0-10-10--8--8xxxx8--8--8/10-10-10-
  |
  |----------------------------------------------
  |----------------------------------------------
  |-7--7--7-7-7--7--7-7-10--10-10/3--3--3/5--5-5-
  |----------------------------------------------
  |-5--5--5-5-5--5--5-5--8---8--8/1--1--1/3--3-3-
  |----------------------------------------------
 

VERSE
  |----------------------------------------------------------------------
  |----------------------------------------------------------------------
  |-----2---------------------------------2------------------------------
  |---3---3---3---3---0-3-------0-3-----3---3---3---3---0-3-------0-3--3-
  |-------------3---1-------1/3-------------------3---1-------1/3--------
  |-0-------0-------------------------0-------0--------------------------

CHORUS
  |--------------------------------------------------
  |--------------------------------------------------
  |--------------------------------------------------
  |-xxxx0--0xxxx0--0-10-10--8--8xxxx8--8--8/10-10-10-
  |-xxxx0--0xxxx0--0-10-10--8--8xxxx8--8--8/10-10-10-
  |-xxxx0--0xxxx0--0-10-10--8--8xxxx8--8--8/10-10-10-
  
  |----------------------------------------------
  |----------------------------------------------
  |----------------------------------------------
  |-0--0xxxx0--0-10-10--8--8xxxx8--8--8/10-10-10-
  |-0--0xxxx0--0-10-10--8--8xxxx8--8--8/10-10-10-
  |-0--0xxxx0--0-10-10--8--8xxxx8--8--8/10-10-10-

  |----------------------------------------------
  |----------------------------------------------
  |----------------------------------------------
  |-0--0xxxx0--0-10-10--8--8xxxx8--8--8/10-10-10-
  |-0--0xxxx0--0-10-10--8--8xxxx8--8--8/10-10-10-
  |-0--0xxxx0--0-10-10--8--8xxxx8--8--8/10-10-10-
  |
  |----------------------------------------------
  |----------------------------------------------
  |-7--7--7-7-7--7--7-7-10--10-10/3--3--3/5--5-5-
  |----------------------------------------------
  |-5--5--5-5-5--5--5-5--8---8--8/1--1--1/3--3-3-
  |----------------------------------------------

  |----------------------------------------------
  |----------------------------------------------
  |----------------------------------------------
  |-0--0xxxx0--0-10-10--8--8xxxx8--8--8/10-10-10-
  |-0--0xxxx0--0-10-10--8--8xxxx8--8--8/10-10-10-
  |-0--0xxxx0--0-10-10--8--8xxxx8--8--8/10-10-10-
  |
  |----------------------------------------------
  |----------------------------------------------
  |-7--7--7-7-7--7--7-7-10--10-10/3--3--3/5--5-5-
  |----------------------------------------------
  |-5--5--5-5-5--5--5-5--8---8--8/1--1--1/3--3-3-
  |----------------------------------------------

INTERLUDE
  |----------------------------------------------------------
  |----------------------------------------------------------
  |-------10--10-10-10/12-12-12--------10-10-10/9--9-9-9/7-7-
  |-0--0-------------------------3--3-----------------------
  |-0--0---8---8--8--8/10-10-10--3--3--8--8--8/7--7-7-7/5-5-
  |-0--0-------------------------3--3-----------------------

  |--------------------------------------------------------
  |--------------------------------------------------------
  |-------10--10-10-10/12-12-12--------x-x10/9--9--9-9/7-7-
  |-0--0-------------------------3--3----------------------
  |-0--0---8---8--8--8/10-10-10--3--3--x-x-8/7--7--7-7/5-5-
  |-0--0-------------------------3--3----------------------

SOLO
  |---------------------------------------------------------------------
  |---------------------------------------------------------------------
  |---------------------------------------------------------------------
  |---------------------------------------------------10-10-8-8-7-7-8-8-
  |-----8-8-7-7-8-8-10-10-8-8-7-7-5-5-----8-8-7-7-8-8-------------------
  |-0-0-------------------------------8-8-------------------------------
    pm.................................................................
  |---------------------------------------------------------------------
  |---------------------------------------------------------------------
  |---------------------------------------------------------------------
  |---------------------------------------------------10-10-8-8-7-7-8-8-
  |-----8-8-7-7-8-8-10-10-8-8-7-7-5-5-----8-8-7-7-8-8-------------------
  |-0-0-------------------------------8-8-------------------------------
    pm...............................................
  |---------------------------------------------------------------------
  |---------------------------------------------------------------------
  |---------------------------------------------------------------------
  |---------------------------------------------------10-10-8-8-7-7-8-8-
  |-----8-8-7-7-8-8-10-10-8-8-7-7-5-5-----8-8-7-7-8-8-------------------
  |-0-0-------------------------------8-8-------------------------------

  |---------------------------------------------------------------------------
  |---------------------------------------------------------------------------
  |---------------------------------------------------------------------------
  |---------------------------------------------------10-10-10-10-10-10-10-10-
  |-----8-8-7-7-8-8-10-10-8-8-7-7-5-5-----8-8-7-7-8-8-------------------------
  |-0-0-------------------------------8-8-------------------------------------

OUTRO
  |-------------------------------------------------
  |-------------------------------------------------
  |-------------------------------------------------
  |-0--0xxxx0--0-10-10--8--8xxxx8--8--8/10-10-10--0-
  |-0--0xxxx0--0-10-10--8--8xxxx8--8--8/10-10-10--0-
  |-0--0xxxx0--0-10-10--8--8xxxx8--8--8/10-10-10--0-
  |
  |-------------------------------------------------
  |-------------------------------------------------
  |-7--7--7-7-7--7--7-7-10--10-10/3--3--3/5--5-5--5-
  |-------------------------------------------------
  |-5--5--5-5-5--5--5-5--8---8--8/1--1--1/3--3-3--3-
  |-------------------------------------------------

Comments about this tab

Anthony Collins - 2004-05-17

Someone should put in chords for the song broken also. Because i dont no how to read tabs.




- Anthony Collins









njsk8rboy - 2004-07-17

WRONG i got the tab book and no offense but the tab is wrong


Jake the Snake - 2004-07-28

there are only a couple perfect tabs up here anyway good job person


mmggppmgp - 2004-10-08

if u hav the book... pls tab it plss... oh well... i guess im goin to ask christopher to tab it for me... lol, he is my friend if u guys r wondering... he is cool

GOD BLESS ALL, ROCK OUT FOR JESUS


SK8TER - 2004-10-22

i WOULD LIKE IF SOMEONE WOULD PUT THIS SONG ON CHORDS BECAUSE I DONT KNOW HOW TO READ TABS


lespaul2003 - 2004-11-01

hey man good tab you have the solo down pretty good at least it sounds like it good job


lilsk8rboi411 - 2005-01-28

12 stones has a tab book??where can i find it at??


Highfive1177 - 2005-06-24

Reading Tabs is pretty important in playing guitar man.....Turn your guitar
sideways.....NOW TRY TO READ TABS...


guitarcordfreak - 2006-04-12

sorry but this was pretty far off!


guitarcordfreak - 2006-07-13

oh ya,lilsk8rboi411. you can buy the book at 12stones.com.


skaterboi - 2006-10-16

e|---- e STRING
B|---- B STRING
G|---- G STRING
D|---- D STRING
A|---- A STRING
E|---- E STRING

DROP D:
e|---- e STRING
B|---- B STRING
G|---- G STRING
D|---- D STRING
A|---- A STRING
D|---- E STRING

DROP C:
D|---- e STRING
A|---- B STRING
F|---- G STRING
C|---- D STRING
G|---- A STRING
C|---- E STRING




Add a comment/correction

Complimentary Christian Ringtones
Dadamobile and CGR have teamed up to bring your favorite Christian artists right to your phone. Sign up today and get 10 complementary ringtones!
Tab Country
Did you know CGR has a sister site w/ country guitar tabs? Well we do! Its called Tab Country. It has a great archive with a lot of country tabs.
Rockin Tabs
Are you looking for a site that has rock guitar tabs? Then Rockintabs.com is the place for you. It is a budding site with many rock guitar tabs. Submit your tab today.
Tab Gallery
Tab Gallery has a compilation of christian, rock, and country tabs all in one place. Come visit us.