Guitar Tabs
song title    band name

Join Us Today!

Don't strum alone...
be a part of the largest online Christian music community. Browse thousands of guitar tabs and chat w/ musicians like yourself.


It's Free!

Newsboys - Shine

This tab has been rated a 2.50 out of 5 for accuracy. (4 votes)Sorry, but you must be logged in to rate this tab.
Click here to log-in, or you can click here to register.
(Registration is free)

All songs owned by corresponding publishing company. If you make copies of any song on this website, be sure to report your usage to CCLI.
Shine
Newsboys

by Phil Joel     I am sure all of this is right. e-mail me if you want
any other of their songs tabbed completely right. My e-mail adress is
guitarist4him@hotmail.com

 (intro)
             Guitar
E-------              
B-------
G-5----                 (let ring w/ phaser and slight distortion)
D-X----
A-3----
E------

                Keyboard does first part of intro

Guitar comes in with slightly distorted phaser while keyboard is playing
a similar part
E----------------------------------------------------------------------------
B----------------------------------------------------------------------------
G--------------------------------2-3-5---------------------------------------
D------------2-3-5---3------3--------3-5---5-5-3-2-3-3---2-3-5---------------
A---3-----3---------3-------------------------------------------------3-5-1--
E----------------------------------------------------------------------------
                            (repeat 1x)

         (Verse 1&2)    They use a slightly heavy dist. but I like to use a
distorted cry baby which sounds a lot cooler

F       G     Am
F       G     C  (while the c is being played, a guitar w/ chorus does this)
                           E-------0---------0----------0-------0------
                           B----1,3-------1--------1,3-------1---------
                           G-0----------0--------0---------0-----------
F       G     Am
F       G- hold the chord

           (chorus) guitar w/slightly distorted phaser
            same as intro

Comments about this tab

Brendini - 2004-06-03

this is great and all, but what about the bridge? Everything here is perfect as far as I can tell, but the bridge is different from everything else and I don't know how to play that. :(


Brendini - 2004-06-07

Okay, so not everything is correct. Instead of
E----------------------------------------------------------------------------
B----------------------------------------------------------------------------
G--------------------------------2-3-5---------------------------------------
D------------2-3-5---3------3--------3-5---5-5-3-2-3-3---2-3-5---------------
A---3-----3---------3-------------------------------------------------3-5-1--
E----------------------------------------------------------------------------

It SHOULD be (as far as I can tell):

E----------------------------------------------------------------------------
B----------------------------------------------------------------------------
G----------------------------2-3-5-------------------------------------------
D------------2-3-5--3------3-------3-2-----2-2-------------2-3-5-------------
A---3-----3--------3----------------------------5-5-3-3----------3-5-1-------
E----------------------------------------------------------------------------


beattitudekorah - 2006-02-20

Hey i play it like this:

E-------------------------------------------------------------------------

b-------------------------------------------------------------------------

g-------------------------------------2---3----5--------------------------

d----------2----3----5-----3----3--------------------2----2--2--0--0----

a---3----3----------------3-----------------------3-------------------3--3

e-------------------------------------------------------------------------

i hope this makes sense

its my first time tabbimg

:)

tcngb

(take care n God bless)

p.s.

after u play that bit

the "dododododo" bit is

e-----------------------------

b-----------------------------

g-----------------------------

d-----------------------------

a--------3----2---------------

e----------------3-----5-----1

and thats that


Add a comment/correction

Complimentary Christian Ringtones
Dadamobile and CGR have teamed up to bring your favorite Christian artists right to your phone. Sign up today and get 10 complementary ringtones!
Tab Country
Did you know CGR has a sister site w/ country guitar tabs? Well we do! Its called Tab Country. It has a great archive with a lot of country tabs.
Rockin Tabs
Are you looking for a site that has rock guitar tabs? Then Rockintabs.com is the place for you. It is a budding site with many rock guitar tabs. Submit your tab today.
Tab Gallery
Tab Gallery has a compilation of christian, rock, and country tabs all in one place. Come visit us.