Guitar Tabs
song title    band name

Join Us Today!

Don't strum alone...
be a part of the largest online Christian music community. Browse thousands of guitar tabs and chat w/ musicians like yourself.


It's Free!

This tab has not yet been rated for accuracy.Sorry, but you must be logged in to rate this tab.
Click here to log-in, or you can click here to register.
(Registration is free)

All songs owned by corresponding publishing company. If you make copies of any song on this website, be sure to report your usage to CCLI.
Don't Forget About Today
Hangnail

nams donnie have any questiosn 
e-mail me at dnboyce@aol.com   () means hammer on pull off it may sound
wierd at fist but once u get it its soud good!

----12----12-----(10-12-10)-----------------------------------------
----------------------------14-12-10--------------------------------
--------------------------------------6-9---------------------------
-0-----0-----0-----------------------------11-12-14-12-11-----------
--------------------------------------------------------------------
--------------------------------------------------------------------

-----12----12----(10-12-10)-----------------------------------------
----------------------------14-12-10--------9-10-9-10-12-10---------
--------------------------------------11-9--------------------------
-0------0-----0-----------------------------------------------------
--------------------------------------------------------------------
--------------------------------------------------------------------

next we have the verse in power chords and if u listen to the song u can
get the stumming patterens.
A   E   C#  F#
the they throw in a weird twist, sounds like one note but its both you
could just play the 9 one if u want though
------------------------------------
------------------------------------
-----9999---9999--------------------
-----7777---7777--------------------X4
-0-0------00------------------------
------------------------------------
then a weird brige like thing that goes into the chorus
------------------------
-----232----------------
----------2-----12------
---2--------------------
-0----------------------
------------------------
then the chorus in power chords again listen to the song for the stumming
C# D A A
C# D A -7-----------
       -4---Two lowest strings
The goes back to the freaky thing like in the being!
wish me luck with the begining!

Comments about this tab

No comments/corrections found. Add your own

Complimentary Christian Ringtones
Dadamobile and CGR have teamed up to bring your favorite Christian artists right to your phone. Sign up today and get 10 complementary ringtones!
Tab Country
Did you know CGR has a sister site w/ country guitar tabs? Well we do! Its called Tab Country. It has a great archive with a lot of country tabs.
Rockin Tabs
Are you looking for a site that has rock guitar tabs? Then Rockintabs.com is the place for you. It is a budding site with many rock guitar tabs. Submit your tab today.
Tab Gallery
Tab Gallery has a compilation of christian, rock, and country tabs all in one place. Come visit us.