Guitar Tabs
song title    band name

Join Us Today!

Don't strum alone...
be a part of the largest online Christian music community. Browse thousands of guitar tabs and chat w/ musicians like yourself.


It's Free!

PFR - Even A Whisper

This tab has been rated a 5.00 out of 5 for accuracy. (1 vote)Sorry, but you must be logged in to rate this tab.
Click here to log-in, or you can click here to register.
(Registration is free)

All songs owned by corresponding publishing company. If you make copies of any song on this website, be sure to report your usage to CCLI.
Even A Whisper
by PfR from the album "Disappear"
Written by Joel Hanson and Phil Madeira
(c)2001 Winning Pitch Music/Careers - BMG Music Pub. Inc./River Oaks 
Music Co.(BMI), Mail Train Music (ASCAP)

tabbed by guitarplayer4jc@msn.com


[verse]
Am      D
G       Am
        D 
G       Am  B


[chorus]
E      F#m       C#m        B         E
       F#m       C#m        D
E      F#m       C#m        B         A



Solo:  It sounds like Joel is playing a 12-string here.  This is what I play
       on my 6-string and it seems to work alright.
e|----0-----------------------0-----1---0--------/3--------0----------------
B|---/5--3-------1------1--3-/5--3--1--/5--1--0---0--1--3-/5---5--3------1--
G|-----------2---2--2---2--0-----0------------0---------0---------0---2--2--
D|--------------------------------------------------------------------------
A|--------------------------------------------------------------------------
E|--------------------------------------------------------------------------

e|------------0------1---0-----------5-----7--5-----------------------------
B|------1--3-/5--3---1--/5--1--0--------7-----------------------------------
G|---2--2--0-----0----------0--0--------------------------------------------
D|--------------------------------------------------------------------------
A|--------------------------------------------------------------------------
E|--------------------------------------------------------------------------

Comments about this tab

No comments/corrections found. Add your own

Complimentary Christian Ringtones
Dadamobile and CGR have teamed up to bring your favorite Christian artists right to your phone. Sign up today and get 10 complementary ringtones!
Tab Country
Did you know CGR has a sister site w/ country guitar tabs? Well we do! Its called Tab Country. It has a great archive with a lot of country tabs.
Rockin Tabs
Are you looking for a site that has rock guitar tabs? Then Rockintabs.com is the place for you. It is a budding site with many rock guitar tabs. Submit your tab today.
Tab Gallery
Tab Gallery has a compilation of christian, rock, and country tabs all in one place. Come visit us.