Guitar Tabs
song title    band name

Join Us Today!

Don't strum alone...
be a part of the largest online Christian music community. Browse thousands of guitar tabs and chat w/ musicians like yourself.


It's Free!

This tab has been rated a 1.75 out of 5 for accuracy. (4 votes)Sorry, but you must be logged in to rate this tab.
Click here to log-in, or you can click here to register.
(Registration is free)

All songs owned by corresponding publishing company. If you make copies of any song on this website, be sure to report your usage to CCLI.
Song: Untie Me
Artist: Ancient of Days
Album: self-titled
Tabbed by: William Giacchi (axeman@iolvegas.com)

This song alternates between clean and distorted electric tones
(specifically, PRS guitars through Marshall stacks :-), as noted.
The band has two guitar players, so what is heard on the CD may
differ slightly from my interpretation. The tempo is pretty slow,
somewhere around 70-80 bpm.

Tune to Drop D.

Intro (clean):
E--------------------------
B--------------------------
G-7-7-7-77-7-7/12-12-11--11		x4
D-x-x-x-xx-x-xxxx---x
A-5-5-5-55-5-5/10-10--9---9
D-0-0-0-00-0---------------


Then intro 2/post-chorus (distorted):
E---------------------|---------
B---------------------|---------
G-12-11-14-11-12-11-7-|-12-12-11		x4
Dxxxxxx-x-|--xxx
A-10--9-12--9-10--9-5-|-10-10--9
D---------------------|---------
				   ^	

One guitar plays this
as the other lets the 
D octave ring out. On 
certain repetitions, 
one guitar plays a 
higher D octave (xx19x17x)

Verse (clean):
E---------------------------------------------------------------------
B---------------------------------------------------------------------
G---------0----------------0----------------0----------------0--------
D-----4-----4---4------4-----4---4------4-----4---4------4-----4---4--
A---5---5-----5------5---5-----5------5---5-----5------5---5-----5----
D-0----------------0----------------5----------------5----------------

E---------------------------------------------------------------------
B---------------------------------------------------------------------
G---------0----------------0----------------0----------------0--------
D-----4-----4---4------4-----4---4------4-----4---4------4-----4---4--
A---5---5-----5------5---5-----5------5---5-----5------5---5-----5----
D-4----------------4----------------5----------------5----------------
						^
Do this 5x, then into the chorus	|

Bass Fill:
G-------------------------4------6--
D-----------------------------------
A------------------0----------------
D-5---------------------------------


Chorus (distorted):
E----------------------
B----------------------
G-7-7--7-7--7--12-12-11
D-x-xx-xx---xxx		x4
A-5-5--5-5--5--10-10--9
D-0-0--0-0--0----------

Then it goes back to intro 2/post-chorus x4
Verse x5
Chorus x4
Intro 2/post-chorus x4
End on Verse x2


And there it is! Have fun playing this one, the band sure does in concert!
This is such a great song in music and lyrics; I can't listen to this
song without my heart crying to God to free me from the bondage of this
world. I hope you guys are as blessed by Ancient of Days' ministry as I
am. God bless.

Comments about this tab

No comments/corrections found. Add your own

Complimentary Christian Ringtones
Dadamobile and CGR have teamed up to bring your favorite Christian artists right to your phone. Sign up today and get 10 complementary ringtones!
Tab Country
Did you know CGR has a sister site w/ country guitar tabs? Well we do! Its called Tab Country. It has a great archive with a lot of country tabs.
Rockin Tabs
Are you looking for a site that has rock guitar tabs? Then Rockintabs.com is the place for you. It is a budding site with many rock guitar tabs. Submit your tab today.
Tab Gallery
Tab Gallery has a compilation of christian, rock, and country tabs all in one place. Come visit us.