Guitar Tabs
song title    band name

Join Us Today!

Don't strum alone...
be a part of the largest online Christian music community. Browse thousands of guitar tabs and chat w/ musicians like yourself.


It's Free!

This tab has not yet been rated for accuracy.Sorry, but you must be logged in to rate this tab.
Click here to log-in, or you can click here to register.
(Registration is free)

All songs owned by corresponding publishing company. If you make copies of any song on this website, be sure to report your usage to CCLI.
Fall At Your Feet
Kim Johnson
key of G

intro lead:

e  |-----------------|----------------|---------------|
B  |-----12----------|----------------|--------15-----|
G  |--------11-------|-----11---------|-----12--------|
D  |--12-------------|--12------------|--12-----------|
A  |-----------------|--------12------|---------------|
E  |-----------------|----------------|---------------|

verse (1, 2)chords:

Bm   D2 (x2)
G       (on third time)

chorus:

Dsus2   A/C#   G

guitar solo:

e |-----------------|----------------|----------------|
B |-----------------|----------------|----------------|
G |--------7--------|----------------|----------------|
D |-9--7-9----------|-9--7-7---------|-7-9-----------7|
A |-----------------|----------------|-----10---------|
E |-----------------|----------------|----------------|

e |-----------------|----------------|
B |----------8--8-8-|---8------------|
G |---7--7-9--------|-9---7----------|
D |-9---------------|----------------|
A |-----------------|----------------|
E |-----------------|----------------|

verse 2:

chorus:


there are some more leads toward the end of this song but i
pretty-much tabbed up the fundamental leads that make the song tick.

Kim Johnson
copyright 1999 Howling Prairie Music

tabbed by Daniel Thomas

this song was pretty accurate, but i noticed something
that was a little screwy, so i decided to fix it. however,
if i did miss something else please contact me at 
Scoobasteve904@cs.com so I may correct it... or just put up
your own version on this site. THANX and God Bless!


the chords used in this song are:

lead:
-------E A D G B e

B5     X 2 4 4 3 X 
D5     X 5 7 7 X X
G5     X 101212X X
A/C#   X 4 7 X X X

rhythm:
-------E A D G B e

Bm     X 2 4 4 3 2
D2     X X 0 2 3 0
G      3 2 0 0 3 3
A/C#   X 4 2 2 2 X

Comments about this tab

No comments/corrections found. Add your own

Complimentary Christian Ringtones
Dadamobile and CGR have teamed up to bring your favorite Christian artists right to your phone. Sign up today and get 10 complementary ringtones!
Tab Country
Did you know CGR has a sister site w/ country guitar tabs? Well we do! Its called Tab Country. It has a great archive with a lot of country tabs.
Rockin Tabs
Are you looking for a site that has rock guitar tabs? Then Rockintabs.com is the place for you. It is a budding site with many rock guitar tabs. Submit your tab today.
Tab Gallery
Tab Gallery has a compilation of christian, rock, and country tabs all in one place. Come visit us.