Guitar Tabs
song title    band name

Join Us Today!

Don't strum alone...
be a part of the largest online Christian music community. Browse thousands of guitar tabs and chat w/ musicians like yourself.


It's Free!

Chevelle - Closure

This tab has been rated a 2.67 out of 5 for accuracy. (3 votes)Sorry, but you must be logged in to rate this tab.
Click here to log-in, or you can click here to register.
(Registration is free)

All songs owned by corresponding publishing company. If you make copies of any song on this website, be sure to report your usage to CCLI.
Song:		Closure
Artist:		Chevelle
Album:		Wonder Whats Next
Tabbed By:	Mike D. - MikeWasTaken@hotmail.com - July 2, 2002.
Tuning:		Dropped D

00:00 - 00:29 Verse

|-------------------------------------------------|
|-------------------------------------------------|
|-4--x-x-x-x--7--x-x-x-x--6--x-x-x-x--7-6-/-7-----|
|-x--x-x-x-x--x--x-x-x-x--x--x-x-x-x--x-x-/-x-----|
|-2--x-x-x-x--5--x-x-x-x--4--x-x-x-x--5-4-/-5-0-0-|
|---------------------------------------------0-0-|

The last two open Ds are fast and soft.  You can omit them if you dont like
them.

00:29 - 00:43

|-------------------------------------------------|
|-------------------------------------------------|
|-------------------------------------------------|
|-(2)---0-2-0-2---0-2-0-4---2-4-2-4---2-4-0-2-----|
|-(2)---0-2-0-2---0-2-0-4---2-4-2-4---2-4-0-2-----|
|-(2)---0-2-0-2---0-2-0-4---2-4-2-4---2-4-0-2-----|

Only play that first E on the first time through.

00:44 - 1:20 Chorus

|-------------------------------------------------|
|-------------------------------------------------|
|(7)--7-7-7-7---7-7-7-7---7-7-7-7-6-4-------------|
|(x)--x-x-x-x---x-x-x-x---x-x-x-x-x-x-------------|
|(5)--5-5-5-5---5-5-5-5---5-5-5-5-4-2-------------|
|-------------------------------------------------|

|-------------------------------------------------|
|-------------------------------------------------|
|-2---2-2-2-2---2-2-2-2---2-2-2-2---2-2-2-7-------|
|-0---0-0-0-0---0-0-0-0---0-0-0-0---0-0-0-x-------|
|-0---0-0-0-0---0-0-0-0---0-0-0-0---0-0-0-5-------|
|-0---0-0-0-0---0-0-0-0---0-0-0-0---0-0-0---------|

Same deal here, play the first octave only the first time.
The last time he plays this, he only goes half way through the second measure.

1:20 - 1:22 (Distorted)

|-------------|
|-------------|
|-------------|
|-2-0---2-0---|
|-2-0---2-0---|
|-2-0---2-0---|
  .     . 

Palm Mute the Es.

2:33 - 00:00  (Distortion)

Dont pause at the end of any of these measures.  They all lead into each
other.

|------------------------------------------------|
|-----------------------------------------2------|
|-4--x-x-x-x--7--x-x-x-x--6--x-x-x-x--7-6-0------|
|-x--x-x-x-x--x--x-x-x-x--x--x-x-x-x--x-x-0------|
|-2--x-x-x-x--5--x-x-x-x--4--x-x-x-x--5-4-0------|
|------------------------------------------------|

|------------------------------------------------|
|------------------------------------------------|
|-4--x-x-x-x--7--x-x-x-x--6--x-x-x-x--9-9-9-9-9-9|
|-x--x-x-x-x--x--x-x-x-x--x--x-x-x-x--x-x-x-x-x-x|
|-2--x-x-x-x--5--x-x-x-x--4--x-x-x-x--7-7-7-7-7-7|
|------------------------------------------------|

|------------------------------------------------|
|---------------------------------------------2--|
|-4--x-x-x-x--7--x-x-x-x--6--x-x-x-x--7-6-/-7-0--|
|-x--x-x-x-x--x--x-x-x-x--x--x-x-x-x--x-x-/-x-0--|
|-2--x-x-x-x--5--x-x-x-x--4--x-x-x-x--5-4-/-5-0--|
|------------------------------------------------|

|------------------------------------------------|
|-----------------------------------------2------|
|-4--x-x-x-x--7--x-x-x-x--6--x-x-x-x--7-6-0------|
|-x--x-x-x-x--x--x-x-x-x--x--x-x-x-x--x-x-0------|
|-2--x-x-x-x--5--x-x-x-x--4--x-x-x-x--5-4-0------|
|------------------------------------------------|

3:43 - End

|-------------------------------------------------|
|-------------------------------------------------|
|-7-7-7--7-7-7------------------------------------|
|-x-x-x--x-x-x-4-4---4----2-2---2----0-0---0------|
|-5-5-5--4-4-4-4-4---4----2-2---2----0-0---0------|
|--------------4-4---4----2-2---2----0-0---0------|

Palm Mute the Open Ds the last time through.

Any comments at all are appreciated.  MikeWasTaken@hotmail.com
Please do not archive without permission!

Comments about this tab

sean medlin - 2004-03-03

umh everything needs two slid down two frets so like 4,is actually 6.
x x
2 4


BeNtpastBroKen - 2004-07-07

i think it sounds best in drop c and start at the 5th fret.


ariaman - 2005-01-06

this song is actually in drop b tuning, starting at the 5th fret


Add a comment/correction

Complimentary Christian Ringtones
Dadamobile and CGR have teamed up to bring your favorite Christian artists right to your phone. Sign up today and get 10 complementary ringtones!
Tab Country
Did you know CGR has a sister site w/ country guitar tabs? Well we do! Its called Tab Country. It has a great archive with a lot of country tabs.
Rockin Tabs
Are you looking for a site that has rock guitar tabs? Then Rockintabs.com is the place for you. It is a budding site with many rock guitar tabs. Submit your tab today.
Tab Gallery
Tab Gallery has a compilation of christian, rock, and country tabs all in one place. Come visit us.