Guitar Tabs
song title    band name

Join Us Today!

Don't strum alone...
be a part of the largest online Christian music community. Browse thousands of guitar tabs and chat w/ musicians like yourself.


It's Free!

Kutless - Vow

This tab has been rated a 4.15 out of 5 for accuracy. (13 votes)Sorry, but you must be logged in to rate this tab.
Click here to log-in, or you can click here to register.
(Registration is free)

All songs owned by corresponding publishing company. If you make copies of any song on this website, be sure to report your usage to CCLI.
Artist:Kutless
Song:Vow
                   Note:Dropped D Tuning!!

Verse(Fingerpicking not shown):
|----------------------------------------------------------| 
|----------------------------------------------------------|
|----------------------------------------------------------|
|-10-6-5-8-------------------------------------------------|
|-10-6-5-8-------------------------------------------------|
|-10-6-5-8-------------------------------------------------|
Chorus:
|----------------------------------------------------------|
|----------------------------------------------------------|
|-5-55-----------------3-3---------------------------------|
|-5-55----66--1-1-1-1--3-3---------------------------------|
|-3-33----66--1-1-1-1--1-1---------------------------------|
|---------66--1-1-1-1--------------------------------------|

Bridge:
|----------------------------------------------------------|
|----------------------------------------------------------|
|----------------------------------------------------------|
|--12--14--------------------------------------------------|
|----------------------------------------------------------|
|----------------------------------------------------------|

Comments about this tab

josh-rock - 2004-05-19

Hey guys.......this Tab is pretty bad, Give a comment if anyone thinks I should just delete it. josh-rock


12_stonesfreak - 2005-02-19

that is a great tab! that is the best one for this song on this site-12_stonesfreak.


KutlessRocks842 - 2005-05-28

This tab is great. The chords for the verses and the chorus are right i not sure about the bridge so i put it down below. There is no need to delete it because it is right.

This is how I play the bridge
C Eb Bb Bb
e--------------------------------------------
b--------------------------------------------
g-5----8----3-----3333------------------------------
d-5-x8-8-x8-3-x12-3333-------------------------------------
a-3----6----1-----1111------------------------------
e--------------------------------------------

Palm mute all chords but the last 4 Bb's

I hope that makes sense to you. enjoy.
God Bless!!!!!!


Add a comment/correction

Complimentary Christian Ringtones
Dadamobile and CGR have teamed up to bring your favorite Christian artists right to your phone. Sign up today and get 10 complementary ringtones!
Tab Country
Did you know CGR has a sister site w/ country guitar tabs? Well we do! Its called Tab Country. It has a great archive with a lot of country tabs.
Rockin Tabs
Are you looking for a site that has rock guitar tabs? Then Rockintabs.com is the place for you. It is a budding site with many rock guitar tabs. Submit your tab today.
Tab Gallery
Tab Gallery has a compilation of christian, rock, and country tabs all in one place. Come visit us.