Guitar Tabs
song title    band name

Join Us Today!

Don't strum alone...
be a part of the largest online Christian music community. Browse thousands of guitar tabs and chat w/ musicians like yourself.


It's Free!

Knapp, Jennifer - Martyrs and Thieves

This tab has been rated a 3.00 out of 5 for accuracy. (3 votes)Sorry, but you must be logged in to rate this tab.
Click here to log-in, or you can click here to register.
(Registration is free)

All songs owned by corresponding publishing company. If you make copies of any song on this website, be sure to report your usage to CCLI.
Martyrs and Thieves
Jennifer Knapp

All I have right now is the main riff for the whole song. I can't figure
out the chords she uses in the chorus and parts of the verses, but here
it is.

E ---------6-6-------6-6-------------------6-6---------6-6--------------------
B ---------6-6-------6-6-------8-6---------6-6---------6-6-----------------8-6
G ----------------------------------------------------------------------------
D ----------------------------------------------------------------------------
A ---5h6---------5---------3---------3h4---------5h6---------5--5-7-8--8------
E ----------------------------------------------------------------------------

then you just repeat that through most of the song. The third picking on
A switches from a 3 to an 8 every other time you play it. That is all that
I know. If you see any mistakes or find out what those chords are, email me
at toadyswim@yahoo.com. Thanks!

Stef

Comments about this tab

guitar4him - 2004-04-29

lol..... sorry guys, i tabbed this when i had no clue what i was doing when it came to this stuff. and i didn't have a capo back then. see the chords for this song and its played with the same kinda strumming pattern this was was tabbed in.


gutiar ric - 2006-05-05

capo# 3
intro and verse

e---------3------3-----0----------3-----------------------0--
b---------3------3-----3----------3-----------------------3--
g---------0------0-----2----------0-----------------------2--
d---------0------0-----0----------0-----------------0-----0--
a--2-h-3--3---2--2--0--0--0-h-2---2---2-h-3-2-2-h-3---0---0--
e---------x------x-----x----------x-----------------------x--


go to the chord link above this one to get the chords for the verse and chorus


gutiar ric - 2006-05-05

i noticed that the tab line was off so i shortened it up some
'maybe it worked

capo# 3
intro and verse

e--------3----3---0---------3---------------------0-
b--------3----3---3---------3---------------------3-
g--------0----0---2---------0---------------------2-
d--------0----0---0---------0----------------0----0-
a-2-h-3--3--2-2-0-0--0-h-2--2--2-h-3-2-2-h-3---0--0-
e--------x----x---x---------x---------------------x-


go to the chord link above this one to get the chords for the verse and chorus


gutiar ric - 2006-05-05

i noticed that the tab line was off so i shortened it up some
'maybe it worked

capo# 3
intro and verse

e--------3----3---0---------3---------------------0-
b--------3----3---3---------3---------------------3-
g--------0----0---2---------0---------------------2-
d--------0----0---0---------0----------------0----0-
a-2-h-3--3--2-2-0-0--0-h-2--2--2-h-3-2-2-h-3---0--0-
e--------x----x---x---------x---------------------x-


go to the chord link above this one to get the chords for the verse and chorus


Add a comment/correction

Complimentary Christian Ringtones
Dadamobile and CGR have teamed up to bring your favorite Christian artists right to your phone. Sign up today and get 10 complementary ringtones!
Tab Country
Did you know CGR has a sister site w/ country guitar tabs? Well we do! Its called Tab Country. It has a great archive with a lot of country tabs.
Rockin Tabs
Are you looking for a site that has rock guitar tabs? Then Rockintabs.com is the place for you. It is a budding site with many rock guitar tabs. Submit your tab today.
Tab Gallery
Tab Gallery has a compilation of christian, rock, and country tabs all in one place. Come visit us.