Guitar Tabs
song title    band name

Join Us Today!

Don't strum alone...
be a part of the largest online Christian music community. Browse thousands of guitar tabs and chat w/ musicians like yourself.


It's Free!

This tab has been rated a 4.67 out of 5 for accuracy. (3 votes)Sorry, but you must be logged in to rate this tab.
Click here to log-in, or you can click here to register.
(Registration is free)

All songs owned by corresponding publishing company. If you make copies of any song on this website, be sure to report your usage to CCLI.
She Cries
East West

Verses thers is some wierd effect going here
e---------------------------------------
B---------------------------------------
G---------------------------------------
D----10-10-10----6-6-6---4-4-4---4-4-4--
A---8--8--8--8--6-6-6-6-4-4-4-4-4-4-4-4-
E--6-----------4-------2-------2--------


Chorus--listen for chord change timing
e----------------------------------------------------
B----------------------------------------------------
G--88888888------------------------------------------
D--66666666-6666666666-8888888-101010101010-444444444
A--44444444-6666666666-8888888-8 8 8 8 8 8--444444444
E-----------4444444444-6666666-6 6 6 6 6 6--222222222

Thats all. It just repeats a bunch of times.

If u have any ?'s or comments email me at mansonstinks@aol.com
God Bless

Comments about this tab

Jake the Snake - 2004-04-07

e---------------------------------------
B---------------------------------------
G---------------------------------------
D----10-10-10----6-6-6---6-6-6---4-4-4--
A---8--8--8--8--6-6-6-6-4-4-4-4-4-4-4-4-
E--6-----------4-------2-------2--------

It should be something like this ^

instead of below

e---------------------------------------
B---------------------------------------
G---------------------------------------
D----10-10-10----6-6-6---4-4-4---4-4-4--
A---8--8--8--8--6-6-6-6-4-4-4-4-4-4-4-4-
E--6-----------4-------2-------2--------

Its a small change but it makes a huge difference

~Jake


spazboy20180 - 2004-07-25

jake wut u corrected was the same thing he had on there


scarreddisciple - 2004-09-23

No it's not. He bumped the third note group on the D string up to the sixth fret instead of leaving it just like the fourth note group.


Add a comment/correction

Complimentary Christian Ringtones
Dadamobile and CGR have teamed up to bring your favorite Christian artists right to your phone. Sign up today and get 10 complementary ringtones!
Tab Country
Did you know CGR has a sister site w/ country guitar tabs? Well we do! Its called Tab Country. It has a great archive with a lot of country tabs.
Rockin Tabs
Are you looking for a site that has rock guitar tabs? Then Rockintabs.com is the place for you. It is a budding site with many rock guitar tabs. Submit your tab today.
Tab Gallery
Tab Gallery has a compilation of christian, rock, and country tabs all in one place. Come visit us.