Guitar Tabs
song title    band name

Join Us Today!

Don't strum alone...
be a part of the largest online Christian music community. Browse thousands of guitar tabs and chat w/ musicians like yourself.


It's Free!

Relient K - For the Moments I Feel Faint

This tab has been rated a 3.57 out of 5 for accuracy. (7 votes)Sorry, but you must be logged in to rate this tab.
Click here to log-in, or you can click here to register.
(Registration is free)

All songs owned by corresponding publishing company. If you make copies of any song on this website, be sure to report your usage to CCLI.
For The Moments I Feel Faint
Relient K

Intro:1 Guitar plays chords

E=022300
A2=002200
C#m7=046600
Bsus=024400

2nd Guitar, at the same time, plays

e------------------------------------------]2x
B------------------------------------------]2x
G------------------------------------------]2x
D-6-6-66-67-6-4-6--6-6-66-6----------------]2x
A--------------------------6-7-9-----------]2x
E------------------------------------------]2x

1st Verse:[E,A2,C#m7,Bsus]

Chorus 1st time:[E,A2,C#m7,Bsus]

Bridge:1 Guitar plays

e--4-4-44-45-4-2-4--4-4-44-4--------------
B---------------------------4-5-7---------
G-----------------------------------------
D-----------------------------------------
A-----------------------------------------
E-----------------------------------------

2nd Verse:[E,A2,C#m7,Bsus]

Chorus 2nd time:[E,A2,C#m7,Bsus] 
                [B#9 twice while hand-palming, then Bsus,C9,Bsus,C9]
                [Bsus,C9,B#9,A2,E,E5,E,A2,C#m7,Bsus]
--------------------------------------------------------------------------------
B#9=024430
C9=035500
E5=022400
--------------------------------------------------------------------------------

End:

e--4-4-44-45-4-2-4--4-4-44-4-------------]2x
B---------------------------4-5-7--------]2x
G----------------------------------------]2x
D----------------------------------------]2x
A----------------------------------------]2x
E----------------------------------------]2x                

Comments about this tab

Drewbus - 2004-07-04

The correct third chord is C#m9, not C#m7. C#m7 would be x46444 and that's most certainly not the chord he's playing. You have the fingering correct but the name wrong.


mmggppmgp - 2004-12-31

im recommendin this song i need like the song # thingy... u get me??? like for songs u need to hav a CCLI??? wut eva it is something song # to hav the words up on overhead or power point... yeah i will really appricciate it if u guys noe and email it to me at michael_97124@hotmail.com or Aim at guitarchef97124... GOD BLESS AND RAWK OUT FOR JESUS, CUZ HE DESERVES IT ALL!!!


cuteness0010 - 2005-06-09

isn't the second verse part a violin? well does anyone have the violin part cuz i'd really like to learn it for youth group


Add a comment/correction

Complimentary Christian Ringtones
Dadamobile and CGR have teamed up to bring your favorite Christian artists right to your phone. Sign up today and get 10 complementary ringtones!
Tab Country
Did you know CGR has a sister site w/ country guitar tabs? Well we do! Its called Tab Country. It has a great archive with a lot of country tabs.
Rockin Tabs
Are you looking for a site that has rock guitar tabs? Then Rockintabs.com is the place for you. It is a budding site with many rock guitar tabs. Submit your tab today.
Tab Gallery
Tab Gallery has a compilation of christian, rock, and country tabs all in one place. Come visit us.