Guitar Tabs
song title    band name

Join Us Today!

Don't strum alone...
be a part of the largest online Christian music community. Browse thousands of guitar tabs and chat w/ musicians like yourself.


It's Free!

This tab has not yet been rated for accuracy.Sorry, but you must be logged in to rate this tab.
Click here to log-in, or you can click here to register.
(Registration is free)

All songs owned by corresponding publishing company. If you make copies of any song on this website, be sure to report your usage to CCLI.
Song: Every Knee Shall Bow
Album: Motor
Artist: Dust Eater Dogs (http:/www.merisaari.com/ded)
Tabbed by Kimmo Klemola (geimox@surfeu.fi)

This is my vision of the excellent hard core song by the awesome Dust
Eater Dogs. Word of  warning: I'm not a professional tablature maker,
so some of the notes might be too long/short,  but the very essence of
the song is here, so listen to the CD to get the timing right. If you
come up to any fatal mistakes or problems with this tabulature, feel free
to correct/mail to me about them.

INTRO:

 Rhythm guitar & bass (x8)
 E------------------------
 B------------------------
 D------------------------
 G------------------------
 A--5----------------3----
 D-----0--3---5h6p7-------


VERSE:

 Rhythm Guitar & Bass (x3)
 e----------------------
 B----------------------
 D----------------------
 G---3--0---7-6-5h6p5----
 A---3--0---7-6-5h6p5----
 D---3--0---7-6-5h6p5----

 then 

 Rhythm Guitar & Bass (once)
 e----------------------
 B----------------------
 D----------------------
 G--3--0--5-5-5-5h6-6---
 A--3--0--5-5-5-5h6-6---
 D--3--0--5-5-5-5h6-6---


BRIDGE:

 In the bridge part bass guitar 
 simply repeats the verse part:

 Bass (x3)
 D----------------------
 G----------------------
 A----------------------
 D---3--0--6-5-3h5p3----

 then

 Bass (once)
 D----------------------
 G----------------------
 A----------------------
 D--3--0--5-5-5-5h6-6---

 In the bridge part guitar plays weird, 
 silent wah-chord that I still haven't 
 yet managed to translate, even though 
 it sounds very simple (I don't own wah 
 pedal, so it's hard to go by guessing :)


CHORUS:

 Rhythm Guitar & Bass (repeat eight times)
 E------------------------
 B------------------------
 D------------------------
 G------------------------
 A--5----------------3----
 D-----0--3---5h6p7-------



All glory to Jesus Christ!

Comments about this tab

No comments/corrections found. Add your own

Complimentary Christian Ringtones
Dadamobile and CGR have teamed up to bring your favorite Christian artists right to your phone. Sign up today and get 10 complementary ringtones!
Tab Country
Did you know CGR has a sister site w/ country guitar tabs? Well we do! Its called Tab Country. It has a great archive with a lot of country tabs.
Rockin Tabs
Are you looking for a site that has rock guitar tabs? Then Rockintabs.com is the place for you. It is a budding site with many rock guitar tabs. Submit your tab today.
Tab Gallery
Tab Gallery has a compilation of christian, rock, and country tabs all in one place. Come visit us.