Guitar Tabs
song title    band name

Join Us Today!

Don't strum alone...
be a part of the largest online Christian music community. Browse thousands of guitar tabs and chat w/ musicians like yourself.


It's Free!

This tab has not yet been rated for accuracy.Sorry, but you must be logged in to rate this tab.
Click here to log-in, or you can click here to register.
(Registration is free)

All songs owned by corresponding publishing company. If you make copies of any song on this website, be sure to report your usage to CCLI.
Song: Motor
Album: King Kong Fist (CD-single)
Artist: Dust Eater Dogs (http:/www.merisaari.com/ded)
Tabbed by: Kimmo Klemola (geimox@surfeu.fi)

There are at least three versions of Motor. I tried to translate the
earliest version from "King Kong Fist"-single. The second version
is "storebror edition" on the same single. Basically same song, but
spiced with harmonica and Swedish lyrics! Whoa... ;)

Third version can be found on Dust Eater Dogs' second full lenght album
"Oil", named as "Motor 3.0".

Obviously this is NOT a 1:1 translation (especially with 
solo parts, I'm just not a fan of Yngwie M.), but hey, any 
mistakes found can be fixed, so let me know if you find 
any fatal errors that should be corrected!


Drop low E to D, and go for it!

The song can be cut down to 13 parts, 
which in chronological order are:

[1] VERSE1:

 E--------------
 B--------------
 D--------------
 G--0----0-0----
 A--0----0-0----
 D--0----0-0----


[2] INTRO:

 E-----------------------------------
 B-----------------------------------
 D-----------------------------------
 G--6-5-3-0--0-3-0-5-0-6-0--0-3-0-5--
 A--6-5-3-0--0-3-0-5-0-6-0--0-3-0-5--
 D--6-5-3-0--0-3-0-5-0-6-0--0-3-0-5--

then three times:

 E-----------------------------------
 B-----------------------------------
 D-----------------------------------
 G--0--0-3-0-5-0-6-0--0-3-0-5--------
 A--0--0-3-0-5-0-6-0--0-3-0-5--------
 D--0--0-3-0-5-0-6-0--0-3-0-5--------



[3] BRIDGE (ALWAYS PALM MUTED):

 E-----------------------------------
 B-----------------------------------
 D-----------------------------------
 G--0--0-3-0-5-0-6-0--0-3-0-5--------
 A--0--0-3-0-5-0-6-0--0-3-0-5--------
 D--0--0-3-0-5-0-6-0--0-3-0-5--------

[4] CHORUS:

 E------------------------------
 B------------------------------
 D------------------------------
 G--0--0-0----8--8-8------------
 A--0--0-0----8--8-8------------
 D--0--0-0----8--8-8------------

 E------------------------------
 B------------------------------
 D------------------------------
 G--3--3-3----7--7-7-----7-6-5--
 A--3--3-3----7--7-7-----7-6-5--
 D--3--3-3----7--7-7-----7-6-5--



[5] VERSE2:

 E------------
 B------------
 D------------
 G--0----0-0--
 A--0----0-0--
 D--0----0-0--


[6] INTRO


[7] BRIDGE


[8] CHORUS WITH SOLO1: (x2)

 SOLO1
 E---------------------------------------
 B---------------------------------------
 D-----------2--------------2------------
 G--0--0-3-0---5-3-0--0-3-0---5-3--------
 A---------------------------------------
 D---------------------------------------

 E---------------------------------------
 B---------------------------------------
 D-----------2--------------2------------
 G-------3-----5-3------3-----5-3--------
 A--3--3---3-------3--3---3--------------
 D---------------------------------------



[9] CHORUS WITH SOLO1 (This time leave out the muting in chorus) (x2)


[10] BRIDGE & GUITAR SOLO2

 SOLO2
 (Well, I kind of lacked the patience to write the solo2, sorry. It
shouldn't be too hard, but it does sound a bit complicated for an
unexperienced person like me. Feel free to translate it, if you wish... :)


[11] CHORUS (x2)


[12] MODULATED CHORUS WITH MODULATED SOLO1 (x2)

 MOD. CHORUS
 E------------------------------
 B------------------------------
 D------------------------------
 G--2--2-2----10--10-10---------
 A--2--2-2----10--10-10---------
 D--2--2-2----10--10-10---------

 E------------------------------
 B------------------------------
 D------------------------------
 G--5--5-5----9--9-9-----9-8-7--
 A--5--5-5----9--9-9-----9-8-7--
 D--5--5-5----9--9-9-----9-8-7--


 MOD. SOLO1
 E----------------------------------
 B----------------------------------
 D-------0---4-2-0------0---4-2-0---
 G--2--2---2-------2--2---2---------
 A----------------------------------
 D----------------------------------

 E------------------------------------
 B------------------------------------
 D-------0---4-2-0------0---4-2-0-----
 G--0--0---0-------0--0---0-------0---
 A------------------------------------
 D------------------------------------

[13] MOD. CHORUS & MOD. SOLO1 (This time leave out the muting in chorus) (x4)

Solo guitar seems to go a bit wild at the last 
seconds of the song, and thus it doesn't quite 
follow the Solo1 pattern. But hey, who cares? :)



All glory to Jesus Christ!

Comments about this tab

No comments/corrections found. Add your own

Complimentary Christian Ringtones
Dadamobile and CGR have teamed up to bring your favorite Christian artists right to your phone. Sign up today and get 10 complementary ringtones!
Tab Country
Did you know CGR has a sister site w/ country guitar tabs? Well we do! Its called Tab Country. It has a great archive with a lot of country tabs.
Rockin Tabs
Are you looking for a site that has rock guitar tabs? Then Rockintabs.com is the place for you. It is a budding site with many rock guitar tabs. Submit your tab today.
Tab Gallery
Tab Gallery has a compilation of christian, rock, and country tabs all in one place. Come visit us.