Guitar Tabs
song title    band name

Join Us Today!

Don't strum alone...
be a part of the largest online Christian music community. Browse thousands of guitar tabs and chat w/ musicians like yourself.


It's Free!

This tab has not yet been rated for accuracy.Sorry, but you must be logged in to rate this tab.
Click here to log-in, or you can click here to register.
(Registration is free)

All songs owned by corresponding publishing company. If you make copies of any song on this website, be sure to report your usage to CCLI.
Song: Psychedelic Super Jesus
Album: Oil
Artist: Dust Eater Dogs (http://www.merisaari.com/ded)
Tabbed by: Kimmo Klemola (geimox@surfeu.fi)

Cool song, originally performed by Bride, now fuelled by the grinding
hardcore sound of DED. As you may have noticed, DED's version of
"Psychedelic Super Jesus" is even more straightforward and energic
than Bride's. No offense, of course... :) Anyway, this tab might
give you a clue how to play Bride's version, but tab's not 1:1
compared to it.


Drop low E to D, and go for it!


INTRO & CHORUS:

 E-----------------
 B-----------------
 D-----------------
 G--0--3-0--3-3-0--
 A--0--3-0--3-3-0--
 D--0--3-0--3-3-0-- x3

then

 E---------------
 B---------------
 D---------------
 G--5----3-5-3-0-
 A--5----3-5-3-0-
 D--5----3-5-3-0- x1


VERSE:

 E---------------------
 B---------------------
 D---------------------
 G--0-0-3-0--0-3-0-3---
 A--0-0-3-0--0-3-0-3---
 D--0-0-3-0--0-3-0-3---


 E---------------------
 B---------------------
 D---------------------
 G--0-0-3-0--0-3-0-3-0-
 A--0-0-3-0--0-3-0-3-0-
 D--0-0-3-0--0-3-0-3-0-


BRIDGE:

 E-----------------------------------
 B-----------------------------------
 D-----------------------------------
 G--5--------5-3-5-3-7--5-3-5-3-7--0-
 A--5--------5-3-5-3-7--5-3-5-3-7--0-
 D--5--------5-3-5-3-7--5-3-5-3-7--0-


BRIDGE2:

 E-----------------------------
 B-----------------------------
 D-----------------------------
 G--5-3-0--5-3-0--5-3-0--0-5-0-
 A--5-3-0--5-3-0--5-3-0--0-5-0-
 D--5-3-0--5-3-0--5-3-0--0-5-0-


WILD SOLO AT THE END OF BRIDGE2:

   Not a clue, you tell me... :)



All glory to Jesus Christ!

Comments about this tab

No comments/corrections found. Add your own

Complimentary Christian Ringtones
Dadamobile and CGR have teamed up to bring your favorite Christian artists right to your phone. Sign up today and get 10 complementary ringtones!
Tab Country
Did you know CGR has a sister site w/ country guitar tabs? Well we do! Its called Tab Country. It has a great archive with a lot of country tabs.
Rockin Tabs
Are you looking for a site that has rock guitar tabs? Then Rockintabs.com is the place for you. It is a budding site with many rock guitar tabs. Submit your tab today.
Tab Gallery
Tab Gallery has a compilation of christian, rock, and country tabs all in one place. Come visit us.