Guitar Tabs
song title    band name

Join Us Today!

Don't strum alone...
be a part of the largest online Christian music community. Browse thousands of guitar tabs and chat w/ musicians like yourself.


It's Free!

Blindside - My Mother's Only Son

This tab has been rated a 4.50 out of 5 for accuracy. (2 votes)Sorry, but you must be logged in to rate this tab.
Click here to log-in, or you can click here to register.
(Registration is free)

All songs owned by corresponding publishing company. If you make copies of any song on this website, be sure to report your usage to CCLI.
Artist: Blindside
Song: My Motherís Only Son
Album: A Thought Crushed My Mind
Label: Solid State Records

Tabbed by Matt M.

Part 1
E------------------------
B------------------------
G--6-6-6--6--4--4--XXX---
D--4-4-5--5--2--2--XXX---
A------------------XXX---
E------------------XXX---

Part 2 (endings start fourth time through at /s)
E-------------------/--------|ending-1--|ending-2----
B-------------------/--------|----------|------------
G-7-77-75-55-54-44-44-44-4---|----------|------------
D-7-77-75-55-54-44-44-44-4---|----------|-17-17-17---
A-5-55-53-33-32-22-22-22-2---|-5-4------|-17-17-17---
E-------------------/--------|----------|-15-15-15---

Part 3
E---------------------------
B---------------------------
G---------------------------
D-5--5-55-----4--4-44-------
A-5--5-55-5-4-4--4-44-5-4---
E-3--3-33-----2--2-22-------

Part 3a
E----------------------------
B----------------------------
G----------------------------
D-5--5-55-----4-44-47-77-7---
A-5--5-55-5-4-4-44-47-77-7---
E-3--3-33-----2-22-25-55-5---

Part 4
E----------------------------------------/-------
B----------------------------------------/-------
G----------------------------------------/-------
D-5--5-57-7-9-4--4-45-5-75--5-57-7-94-44-/7-77---
A-5--5-57-7-9-4--4-45-5-75--5-57-7-94-44-/7-77---
E-3--3-35-5-7-2--2-23-3-53--3-35-5-72-22-/5-55---
repeat to /s, then substitute 244 for 577

Part 5
E---------*12*---------------*12*---
B------*12*---------------*12*------
G---*12*---------------*12*---------
D-2---------------------------------
A-2---------------------------------
E-0-----------------0---------------

Optional Violin Part on Guitar
E-----------------------------
B-----------------------------
G-----------------------------
D-2--4-5-1>>>---2--4-5--------
A----------------------5--3---
E-----------------------------

Part 6
E---------------------------------
B---------------------------------
G----11-12-8>>>------11-12-7--5---
D-2--11-12-8>>>---2--11-12-7--5---
A-2--9--10-6>>>---2--9--10-5--3---
E-0---------------0---------------

Part 7 (= is palm mute)
E---------------------------
B---------------------------
G---------=-=---------=-=---
D-5--5-55-2-3-4--4-44-3-4---
A-5--5-55-2-3-4--4-44-3-4---
E-3--3-33-0-1-2--2-22-1-2---

Part 1 ◊8
Part 2 ◊4 with ending 1
Part 3 ◊4
Part 1 ◊8
Part 2 ◊4 with ending 2
Part 3 ◊3, Part 3a ◊1
Part 4 ◊1 (remember to repeat)
Part 1 ◊8
Part 5 ◊1
Optional Violin Part* ◊4
Part 6 ◊4, hold E and fade
Part 2 ◊4 with ending 2
Part 3 ◊1, 3a ◊1, 3 ◊1, 3a ◊1
Part 4 ◊1
(pause)
Part 3 ◊1, 3a ◊1, 3 ◊1, 3a ◊1
first half of Part 4 ◊2 (in other words, repeat without changing 577 to 244)
Part 7 ◊12, fade out

Comments about this tab

Nath - 2005-06-30

This song is amazing! I only really just heard of Blindside recently, and love this song! It rocks!


Add a comment/correction

Complimentary Christian Ringtones
Dadamobile and CGR have teamed up to bring your favorite Christian artists right to your phone. Sign up today and get 10 complementary ringtones!
Tab Country
Did you know CGR has a sister site w/ country guitar tabs? Well we do! Its called Tab Country. It has a great archive with a lot of country tabs.
Rockin Tabs
Are you looking for a site that has rock guitar tabs? Then Rockintabs.com is the place for you. It is a budding site with many rock guitar tabs. Submit your tab today.
Tab Gallery
Tab Gallery has a compilation of christian, rock, and country tabs all in one place. Come visit us.